Home » T » The Rifles »

The Rifles - Talking Tabs

Artists:  A B C D E F G H I J K L M N O P Q R S T U V W X Y Z # 

Talking Tabs

(ver. 1) Click to play this song!
The Rifles
 Rating:
4.2/5 (5 votes)
                -----------------------------------------------------------------------------
-----------------------------------------------------------------------------

Tuning: Standard

00:00 Guitar 1
e|-12-12-12-12-12-12-12-12-12-12-12-12-12-12-12-12-12-12-12-12-12-12-12-12--|
B|-12-12-12-12-12-12-12-12-12-12-12-12-12-12-12-12-12-12-12-12-12-12-12-12--|
G|--------------------------------------------------------------------------|
D|--------------------------------------------------------------------------|
A|--------------------------------------------------------------------------|
E|--------------------------------------------------------------------------|

00:08 Guitar 2
e|-----------------------------------------------------|
B|-----------------------------------------------------|
G|-----------------------------------------------------|
D|-2-0-2-0-----2-0-2/4-2-0---2-0-2-0-------------------|
A|---------2-------------------------------2-----------|
E|-----------------------------------3---3---3-2-3-0---|

00:17 Guitar 1
e|-----------------------------------------------------------|
B|---------------------5-3-5---3-5-3-5/7-5-------------------|
G|---4---4---4-----4-----------------------4-----4-----------|
D|-5---5---5-----5---5-------------------------5---5-4-5-2---|
A|-----------------------------------------------------------|
E|-----------------------------------------------------------|
      Guitar 2   
e|-----------------------------------------------------------|
B|-----------------------------------------------------------|
G|-----------------------------------------------------------|
D|---------------------2-0-2---0-2-0-2/4-2-------------------|
A|---2---2---2-----2-----------------------2-----2-----------|
E|-3---3---3-----3---3-------------------------3---3-2-3-0---|

00:25 Guitar 2
e|-7-7-7777-7-7-7777-7-7-7777----------------|
B|-8-8-8888-8-8-8888-8-8-8888-3-33-7-77------|
G|-9-9-9999-9-9-9999-9-9-9999-4-44-8-88------|
D|-9-9-9999-9-9-9999-9-9-9999-5-55-9-99------| x4
A|-7-7-7777-7-7-7777-7-7-7777-5-55-9-99------|
E|----------------------------3-33-7-77------|

00:25 Guitar 1  
e|-7-7-7777-7-7-7777-7-7-7777----------------|
B|-8-8-8888-8-8-8888-8-8-8888-3-33-7-77------|
G|-9-9-9999-9-9-9999-9-9-9999-4-44-8-88------|
D|-9-9-9999-9-9-9999-9-9-9999-5-55-9-99------| x2
A|-7-7-7777-7-7-7777-7-7-7777-5-55-9-99------|
E|----------------------------3-33-7-77------|

00:33 Guitar 1
e|----------------------------3-33/7-77------|
B|-5-5-5555-5-5-5555-5-5-5555----------------|
G|-------------------------------------------|
D|-------------------------------------------| x2
A|-------------------------------------------|
E|-------------------------------------------|

00:42 Guitar 2 (not too sure about this part)
e|-------------------------------------------|
B|-------------------------------------------|
G|-9999999999999999--------------------------|
D|-9999999999999999-9999999999999999---------| x4
A|-7777777777777777-9999999999999999---------| 
E|------------------7777777777777777---------|
   ................ ................

01:15 Guitar 1
e|---3-5-2---------3-5-2---------3-5-2---------3-5---|
B|----------3-5-3---------3-5-3---------3-5-3--------|
G|---------------------------------------------------|
D|---------------------------------------------------|
A|---------------------------------------------------|
E|---------------------------------------------------|

01:29 Guitar 1 & 2
e|------------|
B|------------|
G|------------|
D|-9-7-5-4----|
A|-9-7-5-4----|
E|-7-5-3-2----|

01:31 Guitar 2
e|-------------------------------------------|
B|-------------------------------------------|
G|-9999999999999999--------------------------|
D|-9999999999999999-9999999999999999---------| x4
A|-7777777777777777-9999999999999999---------| 
E|------------------7777777777777777---------|
   ................ ................

02:05 Guitar 1
e|---3-5-2---------3-5-2---------3-5-2---------3-5---|
B|----------3-5-3---------3-5-3---------3-5-3--------|
G|---------------------------------------------------|
D|---------------------------------------------------|
A|---------------------------------------------------|
E|---------------------------------------------------|

02:19 Guitar 1 & 2
e|------------|
B|------------|
G|------------|
D|-9-7-5-4----|
A|-9-7-5-4----|
E|-7-5-3-2----|

02:22 Guitar 1
e|-12-12-12-12-12-12-12-12-12-12-12-12-12-12-12-12-12-12-12-12-12-12-12-12--|
B|-12-12-12-12-12-12-12-12-12-12-12-12-12-12-12-12-12-12-12-12-12-12-12-12--|
G|--------------------------------------------------------------------------|
D|--------------------------------------------------------------------------|
A|--------------------------------------------------------------------------|
E|--------------------------------------------------------------------------|

02:29 Guitar 2
e|-----------------------------------------------------|
B|-----------------------------------------------------|
G|-----------------------------------------------------|
D|-2-0-2-0-----2-0-2/4-2-0---2-0-2-0-------------------|
A|---------2-------------------------------2-----------|
E|-----------------------------------3~--3---3-2-3-0---|

02:37 Guitar 1
e|-----------------------------------------------------------|
B|---------------------5-3-5---3-5-3-5/7-5-------------------|
G|---4---4---4-----4-----------------------4-----4-----------|
D|-5---5---5-----5---5-------------------------5---5-4-5-2---|
A|-----------------------------------------------------------|
E|-----------------------------------------------------------|
      Guitar 2   
e|-----------------------------------------------------------|
B|-----------------------------------------------------------|
G|-----------------------------------------------------------|
D|---------------------2-0-2---0-2-0-2/4-2-------------------|
A|---2---2---2-----2-----------------------2-----2-----------|
E|-3---3---3-----3---3-------------------------3---3-2-3-0---|

02:46 Guitar 2
e|-7-7-7777-7-7-7777-7-7-7777----------------|
B|-8-8-8888-8-8-8888-8-8-8888-3-33-7-77------|
G|-9-9-9999-9-9-9999-9-9-9999-4-44-8-88------|
D|-9-9-9999-9-9-9999-9-9-9999-5-55-9-99------| x4
A|-7-7-7777-7-7-7777-7-7-7777-5-55-9-99------|
E|----------------------------3-33-7-77------|

02:46 Guitar 1
e|----------------------------3-33/7-77------|
B|-5-5-5555-5-5-5555-5-5-5555----------------|
G|-------------------------------------------|
D|-------------------------------------------| x4
A|-------------------------------------------|
E|-------------------------------------------|

03:02 Guitar 1
e|-7-77-5-55-3-33-2-22-7-77-5-55-3-33-2-22-7777-5555-3333-2222-0--|
B|----------------------------------------------------------------|
G|----------------------------------------------------------------|
D|----------------------------------------------------------------|
A|----------------------------------------------------------------|
E|----------------------------------------------------------------|

03:02 Guitar 2
e|----------------------------------------------------------------|
B|----------------------------------------------------------------|
G|----------------------------------------------------------------|
D|-9-xx-7-xx-5-xx-4-xx-9-xx-7-xx-5-xx-4-xx-9999-7777-5555-4444-2--|
A|-9-xx-7-xx-5-xx-4-xx-9-xx-7-xx-5-xx-4-xx-9999-7777-5555-4444-2--|
E|-7-xx-5-xx-3-xx-2-xx-7-xx-5-xx-3-xx-2-xx-7777-5555-3333-2222-0--|


| /  slide up
| x  Mute note
| .  Palm muting
=============================================================================
            
Submit corrections

↑ Back to top | Tablatures and chords for acoustic guitar and electric guitar, ukulele, drums are parodies/interpretations of the original songs. You may use it for private study, scholarship, research or language learning purposes only