» » »

The Receiving End Of Sirens - This Armistice Tabs

Artists:  A B C D E F G H I J K L M N O P Q R S T U V W X Y Z # 

This Armistice Tabs

(ver. 1) Click to play this song!
The Receiving End Of Sirens
 Rating:
4/5 (4 votes)

 This Armistice lessons Tabs too difficult? Try these video lessons and learn fast
 
                Please note that I am not claiming this tab as my own -I have recovered it from
the internet archive of TREOS's fansite "Flee The Factory" which ceased to exist
sometime ago. I am sure it will be of use to many of you.

#------------------------------------------------------------------------------##

                                 THIS ARMISTICE
                   As recorded by The Receiving End Of Sirens
             (From the 2005 Album BETWEEN THE HEART AND THE SYNAPSE)

Words and Music by The Receiving End Of Sirens
Arranged by The Receiving End Of Sirens

Gtr I (C G C F A D) - 'Untitled'
Gtr II (C G C F A D) - 'Untitled'
Gtr III (C G C F A D) - 'Untitled'
Gtr IV (C G C F A D) - 'Untitled'
Gtr V (C G C F A D) - 'Untitled'
Gtr VI (C G C F A D) - 'Untitled'

   Intro
    Q=145
    N.C.
   4/4
    Gtr IV
     T   T T   T             T   T T   T
     E E E E E S +S   E E    E E E E E S +S   E E
||------------------------|-----------------------|
||o-10s9------------------|-10s9------------------|
||-------9-9p6-9-(9)s11p6-|------9-9p6-9-(9)s11p6-|
||------------------------|-----------------------|
||o-----------------------|-----------------------|
||------------------------|-----------------------|


   T   T T   T             T   T T   T
   E E E E E S +S   E E    E E E E E S +S   E E    5x
|-----------------------|--------------------------||
|-10s9------------------|-10s9--------------------o||
|------9-9p6-9-(9)s11p6-|------9-9p6-9-(9)s11p6----||
|-----------------------|--------------------------||
|-----------------------|-------------------------o||
|-----------------------|--------------------------||


   Verse
    N.C.
    Gtr I
    PM------------------------------------------------|
    E S S S S S S E Q     S S   E Q     S S S S S S E E
||----------------------------|--------------------------||
||o---------------------------|-------------------------o||
||----------------------------|--------------------------||
||----------------------------|--------------------------||
||o---------------------------|-------------------------o||
||----4-4-4-4-4-4-4-------4-4-|-4-------4-4-4-4-4-4-4----||
|
|   Gtr II
|   PM------------------------------------------------|
|   H             E S S E E     E S S E H             E
||----------------------------|--------------------------||
||o---------------------------|-------------------------o||
||------------------6-6-6-----|---6-6-6------------------||
||----------------------------|--------------------------||
||o---------------------------|-------------------------o||
||----------------------------|--------------------------||


  PM----------------------------------------|
  S S S S Q       S S S S Q         S S S S H.
|---------------------------------|-----------------------|
|---------------------------------|-----------------------|
|---------------------------------|-----------------------|
|---------------------------------|-----------------------|
|-4-4-4-4---------4-4-4-4---------|-4-4-4-4---------------|
|---------------------------------|-----------------------|
|
|         PM-----------------------------------------|
| Q       S S S S Q       S S S S   Q       S  S S S H
|---------------------------------|-----------------------|
|---------------------------------|-----------------------|
|---------6-6-6-6---------6-6-6-6-|---------6--6-6-6------|
|---------------------------------|-----------------------|
|---------------------------------|-----------------------|
|---------------------------------|-----------------------|


  PM----------------------------------------|
  S S S S Q       S S S S Q         S S S S H.
|---------------------------------|---------------|
|---------------------------------|---------------|
|---------------------------------|---------------|
|---------------------------------|---------------|
|-5-5-5-5---------5-5-5-5---------|-8-8-8-8-------|
|---------------------------------|---------------|
|
|         PM--------------------|
| Q       S S S S Q       S S S S   Q       H.
|---------------------------------|---------5-----|
|---------------------------------|---------0-----|
|---------6-6-6-6---------6-6-6-6-|---------6-----|
|---------------------------------|---------------|
|---------------------------------|---------------|
|---------------------------------|---------------|


     PM-------------------------------------------------------|
     E  S S  S S S  S E    Q      S S   E Q     S S S S S S E E
||------------------------------------|--------------------------||
||o-----------------------------------|-------------------------o||
||------------------------------------|--------------------------||
||------------------------------------|--------------------------||
||o-----------------------------------|-------------------------o||
||------4-4--4-4-4--4-4-----------4-4-|-4-------4-4-4-4-4-4-4----||
|
|    PM-------------------------------------------------------|
|    H                E    S S  E E     E S S E H             E
||------------------------------------|--------------------------||
||o-----------------------------------|-------------------------o||
||-------------------------6-6--6-----|---6-6-6------------------||
||------------------------------------|--------------------------||
||o-----------------------------------|-------------------------o||
||------------------------------------|--------------------------||
|
|   Gtr III
|    E  E    E   S  E   S  E    Q       W
||------------------------------------|--------------------------||
||o----19-----------------------------|-------------------------o||
||--19------19-----19-----18---18-----|--------------------------||
||------------------------------------|--------------------------||
||o-----------------------------------|-------------------------o||
||------------------------------------|--------------------------||


   PM-----------------------------------------------|
   S S  S S  Q        S S  S S  Q          S S  S S  H.
|---------------------------------------|----------------------------------|
|---------------------------------------|----------------------------------|
|---------------------------------------|----------------------------------|
|---------------------------------------|----------------------------------|
|--x-x--x-x-----------4-4--4-4----------|--x-x--x-x------------------------|
|--x-x--x-x-----------------------------|--x-x--x-x------------------------|
|
|            PM------------------------------------------------|
|  Q         S S S  S Q         S S S S    Q         S  S S  S H
|---------------------------------------|----------------------------------|
|---------------------------------------|----------------------------------|
|------------6-6-6--6-----------6-6-6-6-|------------6--6-6--6-------------|
|---------------------------------------|----------------------------------|
|---------------------------------------|----------------------------------|
|---------------------------------------|----------------------------------|
|
|  E    E    E   S  E   S  E    Q          E    E    E    S  E   S  E  Q
|---------------------------------------|----------------------------------|
|------19-------------------------------|------19--------------------------|
|-19--------19-----19-----18---18-------|-19--------19------19-----18-18---|
|---------------------------------------|----------------------------------|
|---------------------------------------|----------------------------------|
|---------------------------------------|----------------------------------|


                                          Fm                N.C.
   PM-----------------------------------------------------|
   S S  S S  Q        S S  S S  Q         S S S S S S S S E Q.
|---------------------------------------|--------------------------------|
|---------------------------------------|--------------------------------|
|---------------------------------------|--------------------------------|
|---------------------------------------|-6-6-6-6-6-6-6-6-6--------------|
|--x-x--x-x-----------4-4--4-4----------|-8-8-8-8-8-8-8-8-8--------------|
|--x-x--x-x-----------------------------|--------------------------------|
|
|            PM-----------------------|
|  Q         S S S  S Q         S S S S   H               E S  S S S S S
|---------------------------------------|--------------------------------|
|---------------------------------------|--------------------------------|
|------------6-6-6--6-----------6-6-6-6-|-------------------7--7-7-7-7-7-|
|---------------------------------------|--------------------------------|
|---------------------------------------|--------------------------------|
|---------------------------------------|--------------------------------|
|
|  E    E    E   S  E   S  E    Q         W
|---------------------------------------|--------------------------------|
|------19-------------------------------|--------------------------------|
|-19--------19-----19-----18---18-------|--------------------------------|
|---------------------------------------|--------------------------------|
|---------------------------------------|--------------------------------|
|---------------------------------------|--------------------------------|


 Guitar Break
  Bm/F#
  Gtr IV
    W                         W
|-^10----------------------|-------------------------|
|-^12----------------------|-------------------------|
|-^11----------------------|-------------------------|
|--------------------------|-------------------------|
|--------------------------|-------------------------|
|--------------------------|-------------------------|
|
| Gtr V
|   E  E  E  E  E  E  E  E    E  E  E  E  E  E  E  E
|--10----------10----------|-10----------10----------|
|-----12----12----12----12-|----12----12----12----12-|
|--------11----------11----|-------11----------11----|
|--------------------------|-------------------------|
|--------------------------|-------------------------|
|--------------------------|-------------------------|


   W                         W
|-------------------------|--------------------------|
|-------------------------|--------------------------|
|-------------------------|--------------------------|
|-------------------------|--------------------------|
|-------------------------|--------------------------|
|-------------------------|--------------------------|
|
|  E  E  E  E  E  E  E  E    E  E  E  E  E  E  E  E
|-10----------10----------|-10----------10-----------|
|----12----12----12----12-|----12----12----12----12--|
|-------11----------11----|-------11----------11-----|
|-------------------------|--------------------------|
|-------------------------|--------------------------|
|-------------------------|--------------------------|


  D/F#
    W                         W
|-^10----------------------|-------------------------|
|-^10----------------------|-------------------------|
|-^11----------------------|-------------------------|
|--------------------------|-------------------------|
|--------------------------|-------------------------|
|--------------------------|-------------------------|
|
| Gtr V
|   E  E  E  E  E  E  E  E    E  E  E  E  E  E  E  E
|--10----------10----------|-10----------10----------|
|-----10----10----10----10-|----10----10----10----10-|
|--------11----------11----|-------11----------11----|
|--------------------------|-------------------------|
|--------------------------|-------------------------|
|--------------------------|-------------------------|


   W                         W
|-------------------------|--------------------------|
|-------------------------|--------------------------|
|-------------------------|--------------------------|
|-------------------------|--------------------------|
|-------------------------|--------------------------|
|-------------------------|--------------------------|
|
|  E  E  E  E  E  E  E  E    E  E  E  E  E  E  E  E
|-10----------10----------|-10----------10-----------|
|----10----10----10----10-|----10----10----10----10--|
|-------11----------11----|-------11----------11-----|
|-------------------------|--------------------------|
|-------------------------|--------------------------|
|-------------------------|--------------------------|


  A/E
  PM--------------------------------------------
  E  E  E  E  E  E  E  E   E  E E  E E  E E  E
|------------------------|---------------------|
|---10-10-10-10-10-10-10-|-9--9-9--9-7--7-7--7-|
|------------------------|---------------------|
|------------------------|---------------------|
|------------------------|---------------------|
|------------------------|---------------------|
|
| E  E  E  E  E  E  E  E   E  E E  E E  E E  E
|-9-----------9----------|-9---------9---------|
|---10----10----10----10-|---10---10---10---10-|
|-------9-----------9----|------9---------9----|
|------------------------|---------------------|
|------------------------|---------------------|
|------------------------|---------------------|


 --------------------------------------------|
   E  E  E  E  E  E  E  E   E  E E  E E  E E  E
|-------------------------|----------------------|
|-10-10-10-10-10-10-10-10-|-9--9-9--9-7--7-7--7--|
|-------------------------|----------------------|
|-------------------------|----------------------|
|-------------------------|----------------------|
|-------------------------|----------------------|
|
|  E  E  E  E  E  E  E  E   E  E E  E E  E E  E
|--9-----------9----------|-9---------9----------|
|----10----10----10----10-|---10---10---10---10--|
|--------9-----------9----|------9---------9-----|
|-------------------------|----------------------|
|-------------------------|----------------------|
|-------------------------|----------------------|


  D/F#
   PM------------------------------------------------
   E  E  E  E  E  E  E  E    E  E  E  E  E  E  E  E
|-------------------------|-------------------------|
|-10-10-10-10-10-10-10-10-|-10-10-10-10-10-10-10-10-|
|-------------------------|-------------------------|
|-------------------------|-------------------------|
|-------------------------|-------------------------|
|-------------------------|-------------------------|
|
|  E  E  E  E  E  E  E  E    E  E  E  E  E  E  E  E
|-10----------10----------|-10----------10----------|
|----10----10----10----10-|----10----10----10----10-|
|-------11----------11----|-------11----------11----|
|-------------------------|-------------------------|
|-------------------------|-------------------------|
|-------------------------|-------------------------|


 ----------------|
   E  E  E  E  E  E  E  E    E  E  E  E  E  E  E  E
|-------------------------|--------------------------|
|-10-10-10-10-10-10-10-10-|-10-10-10-10-10-10-10-10--|
|-------------------------|--------------------------|
|-------------------------|--------------------------|
|-------------------------|--------------------------|
|-------------------------|--------------------------|
|
|  E  E  E  E  E  E  E  E    E  E  E  E  E  E  E  E
|-10----------10----------|-10----------10-----------|
|----10----10----10----10-|----10----10----10----10--|
|-------11----------11----|-------11----------11-----|
|-------------------------|--------------------------|
|-------------------------|--------------------------|
|-------------------------|--------------------------|


 Pre-Chorus
  B5
  Gtr II
   E  E  E  E  E  E  E  E    E  E  E  E  E  E  E  E
|-------------------------|-------------------------|
|-------------------------|-------------------------|
|-11-11-11----11-11-11----|-12----12----12-12-12----|
|--x--x--x-----x--x--x----|--x-----x-----x--x--x----|
|--9--9--9-----9--9--9----|-10----10----10-10-10----|
|-------------------------|-------------------------|
|
| Gtr I
|  E  E  E  E  E  E  E  E    E  E  E  E  E  E  E  E
|-10----------10----------|-10----------10----------|
|----12----12----12----12-|----12----12----12----12-|
|-------11----------11----|-------11----------11----|
|-------------------------|-------------------------|
|-------------------------|-------------------------|
|-------------------------|-------------------------|
|
| Gtr III
|  E  E  E  E  E  E  E  E    E  E  E  E  E  E  E  E
|-------------------------|-------------------------|
|-------------------------|-------------------------|
|-------------------------|-------------------------|
|--9--9--9-----9--9--9----|--9-----9-----9--9--9----|
|--9--9--9-----9--9--9----|--9-----9-----9--9--9----|
|--9--9--9-----9--9--9----|--9-----9-----9--9--9----|


   E  E  E  E  E  E  E  E    E  E  E  E  E  E  E  E
|-------------------------|--------------------------|
|-------------------------|--------------------------|
|-11-11-11----11-11-11----|-14-14-14-14-13-13-13-13--|
|--x--x--x-----x--x--x----|--x--x--x--x--x--x--x--x--|
|--9--9--9-----9--9--9----|-12-12-12-12-11-11-11-11--|
|-------------------------|--------------------------|
|
|  E  E  E  E  E  E  E  E    E  E  E  E  E  E  E  E
|-10----------10----------|-10----------10-----------|
|----12----12----12----12-|----12----12----12----12--|
|-------11----------11----|-------11----------11-----|
|-------------------------|--------------------------|
|-------------------------|--------------------------|
|-------------------------|--------------------------|
|
|  E  E  E  E  E  E  E  E    E  E  E  E  E  E  E  E
|-------------------------|--------------------------|
|-------------------------|--------------------------|
|-------------------------|--------------------------|
|--9--9--9-----9--9--9----|--9--9--9--9--9--9--9--9--|
|--9--9--9-----9--9--9----|--9--9--9--9--9--9--9--9--|
|--9--9--9-----9--9--9----|--9--9--9--9--9--9--9--9--|


  D5
   E  E  E  E  E  E  E  E    E  E  E  E  E  E  E  E
|-------------------------|-------------------------|
|-------------------------|-------------------------|
|-11-11-11----11-11-11----|-13----13----13-13-13----|
|--x--x--x-----x--x--x----|--x-----x-----x--x--x----|
|--9--9--9-----9--9--9----|-11----11----11-11-11----|
|-------------------------|-------------------------|
|
|  E  E  E  E  E  E  E  E    E  E  E  E  E  E  E  E
|-10----------10----------|-10----------10----------|
|----10----10----10----10-|----10----10----10----10-|
|-------11----------11----|-------11----------11----|
|-------------------------|-------------------------|
|-------------------------|-------------------------|
|-------------------------|-------------------------|
|
|  E  E  E  E  E  E  E  E    E  E  E  E  E  E  E  E
|-------------------------|-------------------------|
|-------------------------|-------------------------|
|-------------------------|-------------------------|
|-12-12-12----12-12-12----|-12----12----12-12-12----|
|-12-12-12----12-12-12----|-12----12----12-12-12----|
|-12-12-12----12-12-12----|-12----12----12-12-12----|


   E  E  E  E  E  E  E  E    E  E  E  E  E  E  E  E
|-------------------------|--------------------------|
|-------------------------|--------------------------|
|-11-11-11----11-11-11----|-14-14-14-14-13-13-13-13--|
|--x--x--x-----x--x--x----|--x--x--x--x--x--x--x--x--|
|--9--9--9-----9--9--9----|-12-12-12-12-11-11-11-11--|
|-------------------------|--------------------------|
|
|  E  E  E  E  E  E  E  E    E  E  E  E  E  E  E  E
|-10----------10----------|-10----------10-----------|
|----10----10----10----10-|----10----10----10----10--|
|-------11----------11----|-------11----------11-----|
|-------------------------|--------------------------|
|-------------------------|--------------------------|
|-------------------------|--------------------------|
|
|  E  E  E  E  E  E  E  E    E  E  E  E  E  E  E  E
|-------------------------|--------------------------|
|-------------------------|--------------------------|
|-------------------------|--------------------------|
|-12-12-12----12-12-12----|-12-12-12-12-12-12-12-12--|
|-12-12-12----12-12-12----|-12-12-12-12-12-12-12-12--|
|-12-12-12----12-12-12----|-12-12-12-12-12-12-12-12--|


  A5
  E  E E  E E  E E  E   E  E E  E  E  E  E  E
|---------------------|-----------------------|
|---------------------|-----------------------|
|-9--9-9----9--9-9----|---13---13-13-13-13----|
|-x--x-x----x--x-x----|----x----x--x--x--x----|
|-7--7-7----7--7-7----|---11---11-11-11-11----|
|---------------------|-----------------------|
|
| E  E E  E E  E E  E   E  E E  E  E  E  E  E
|-9---------9---------|-9----------9----------|
|---10---10---10---10-|---10---10----10----10-|
|------9---------9----|------9-----------9----|
|---------------------|-----------------------|
|---------------------|-----------------------|
|---------------------|-----------------------|
|
| E  E E  E E  E E  E   E  E E  E  E  E  E  E
|---------------------|-----------------------|
|---------------------|-----------------------|
|---------------------|-----------------------|
|-7--7-7----7--7-7----|----7----7--7--7--7----|
|-7--7-7----7--7-7----|----7----7--7--7--7----|
|-7--7-7----7--7-7----|----7----7--7--7--7----|


  E  E E  E E  E E  E    E  E  E  E  E  E  E  E
|---------------------|--------------------------|
|---------------------|--------------------------|
|-9--9-9----9--9-9----|-14-14-14-14-13-13-13-13--|
|-x--x-x----x--x-x----|--x--x--x--x--x--x--x--x--|
|-7--7-7----7--7-7----|-12-12-12-12-11-11-11-11--|
|---------------------|--------------------------|
|
| E  E E  E E  E E  E    E  E  E  E  E  E  E  E
|-9---------9---------|--9-----------9-----------|
|---10---10---10---10-|----10----10----10----10--|
|------9---------9----|--------9-----------9-----|
|---------------------|--------------------------|
|---------------------|--------------------------|
|---------------------|--------------------------|
|
| E  E E  E E  E E  E    E  E  E  E  E  E  E  E
|---------------------|--------------------------|
|---------------------|--------------------------|
|---------------------|--------------------------|
|-7--7-7----7--7-7----|--7--7--7--7--7--7--7--7--|
|-7--7-7----7--7-7----|--7--7--7--7--7--7--7--7--|
|-7--7-7----7--7-7----|--7--7--7--7--7--7--7--7--|


  D5
   E  E  E  E  E  E  E  E    E  E  E  E  E  E  E  E
|-------------------------|-------------------------|
|-------------------------|-------------------------|
|-11-11-11-11-11-11-11-11-|-13-13-13-13-13-13-13-13-|
|--x--x--x--x--x--x--x--x-|--x--x--x--x--x--x--x--x-|
|--9--9--9--9--9--9--9--9-|-11-11-11-11-11-11-11-11-|
|-------------------------|-------------------------|
|
|  E  E  E  E  E  E  E  E    E  E  E  E  E  E  E  E
|-10----------10----------|-10----------10----------|
|----10----10----10----10-|----10----10----10----10-|
|-------11----------11----|-------11----------11----|
|-------------------------|-------------------------|
|-------------------------|-------------------------|
|-------------------------|-------------------------|
|
|  E  E  E  E  E  E  E  E    E  E  E  E  E  E  E  E
|-------------------------|-------------------------|
|-------------------------|-------------------------|
|-------------------------|-------------------------|
|-12-12-12-12-12-12-12-12-|-12-12-12-12-12-12-12-12-|
|-12-12-12-12-12-12-12-12-|-12-12-12-12-12-12-12-12-|
|-12-12-12-12-12-12-12-12-|-12-12-12-12-12-12-12-12-|


   E  E  E  E  E  E  E  E    E  E  E  E  E  E  E  E
|-------------------------|--------------------------|
|-------------------------|--------------------------|
|-14-14-14-14-14-14-14-14-|-14-14-14-14-14-14-14-14--|
|--x--x--x--x--x--x--x--x-|--x--x--x--x--x--x--x--x--|
|-12-12-12-12-12-12-12-12-|-12-12-12-12-12-12-12-12--|
|-------------------------|--------------------------|
|
|  E  E  E  E  E  E  E  E    E  E  E  E  E  E  E  E
|-10----------10----------|-10----------10-----------|
|----10----10----10----10-|----10----10----10----10--|
|-------11----------11----|-------11----------11-----|
|-------------------------|--------------------------|
|-------------------------|--------------------------|
|-------------------------|--------------------------|
|
|  E  E  E  E  E  E  E  E    E  E  E  E  E  E  E  E
|-------------------------|--------------------------|
|-------------------------|--------------------------|
|-------------------------|--------------------------|
|-12-12-12-12-12-12-12-12-|-12-12-12-12-12-12-12-12--|
|-12-12-12-12-12-12-12-12-|-12-12-12-12-12-12-12-12--|
|-12-12-12-12-12-12-12-12-|-12-12-12-12-12-12-12-12--|


 Chorus
  F#5
  Gtr V
   PM--------------------------------------------------------------------------
   E  S   S    E    E   E  S   S   E   E    E  S   S   E   E  E  S   S   E  E
|----------------------------------------|------------------------------------|
|----------------------------------------|------------------------------------|
|-14----(14)-(11)------11----(11)-(9)----|-11----(11)-(9)----13----(13)-(9)---|
|----14-(14)--12--(14)----14-(14)-12--11-|----14-(14)-12--11----14-(14)-12-11-|
|------------------12--------------------|------------------------------------|
|----------------------------------------|------------------------------------|
|
| Gtr I
|  E  E        E    E   E  E       E   E    E  E       E   E  E  E       E  E
|-12---------(12)------------------------|------------------------------------|
|----10--------9-------10--9-------------|------------------------------------|
|------------------11-------------11---9-|-11---------------------------------|
|----------------------------------------|----11-------9---7--9s11s======9s=7-|
|----------------------------------------|------------------------------------|
|----------------------------------------|------------------------------------|
|
| Gtr III
|  Q           Q        Q          Q        Q          Q      Q          Q
|----------------------------------------|------------------------------------|
|----------------------------------------|------------------------------------|
|----------------------------------------|------------------------------------|
|--4-----------4--------4----------4-----|--4----------4------4----------4----|
|--4-----------4--------4----------4-----|--4----------4------4----------4----|
|--4-----------4--------4----------4-----|--4----------4------4----------4----|


 --------------------------------------------------------------------------|
   E  S   S    E    E   E  S   S   E   E    E  S   S   E   E  E  S   S   E  E
|----------------------------------------|------------------------------------|
|----------------------------------------|------------------------------------|
|-14----(14)-(11)------11----(11)-(9)----|-11----(11)-(9)----13----(13)-(9)---|
|----14-(14)--12--(14)----14-(14)-12--11-|----14-(14)-12--11----14-(14)-12-11-|
|------------------12--------------------|------------------------------------|
|----------------------------------------|------------------------------------|
|
|  E  E        E    E   E  E       E   E    E  E       E   E  E  E       E  E
|-12---------(12)------------------------|------------------------------------|
|----10--------9-------10--9-------------|------------------------------------|
|------------------11-------------11---9-|-11---------------------------------|
|----------------------------------------|----11-------9---7--9s11s======9s=7-|
|----------------------------------------|------------------------------------|
|----------------------------------------|------------------------------------|
|
|  Q           Q        Q          Q        Q          Q      Q          Q
|----------------------------------------|------------------------------------|
|----------------------------------------|------------------------------------|
|----------------------------------------|------------------------------------|
|--4-----------4--------4----------4-----|--4----------4------4----------4----|
|--4-----------4--------4----------4-----|--4----------4------4----------4----|
|--4-----------4--------4----------4-----|--4----------4------4----------4----|


  D5
   PM-----------------------------------------------------------------------------
   E  S   S    E    E   E  S   S   E   E     E   S   S   E   E  E  S   S   E   E
|----------------------------------------|---------------------------------------|
|----------------------------------------|---------------------------------------|
|-14----(14)-(11)------11----(11)-(9)----|--11-----(11)-(9)----13----(13)-(9)----|
|----14-(14)--12--(14)----14-(14)-12--11-|------14-(14)-12--11----14-(14)-12--11-|
|------------------12--------------------|---------------------------------------|
|----------------------------------------|---------------------------------------|
|
|  >
|  W                                        +W
|-12-------------------------------------|-(12)----------------------------------|
|----------------------------------------|---------------------------------------|
|----------------------------------------|---------------------------------------|
|----------------------------------------|---------------------------------------|
|----------------------------------------|---------------------------------------|
|----------------------------------------|---------------------------------------|
|
|  >
|  W                                        +W
|----------------------------------------|---------------------------------------|
|----------------------------------------|---------------------------------------|
|----------------------------------------|---------------------------------------|
|--0-------------------------------------|--(0)----------------------------------|
|--0-------------------------------------|--(0)----------------------------------|
|--0-------------------------------------|--(0)----------------------------------|


 ----------------------------------------------------------------------------|
   E   S   S    E    E   E  S   S   E   E    E  S   S   E   E  E  S   S   E   E
|-----------------------------------------|-------------------------------------|
|-----------------------------------------|-------------------------------------|
|-14-----(14)-(11)------11----(11)-(9)----|-11----(11)-(9)----13----(13)-(9)----|
|-----14-(14)--12--(14)----14-(14)-12--11-|----14-(14)-12--11----14-(14)-12--11-|
|-------------------12--------------------|-------------------------------------|
|-----------------------------------------|-------------------------------------|
|
|  W                                         W
|-----------------------------------------|-------------------------------------|
|-----------------------------------------|-------------------------------------|
|-----------------------------------------|-------------------------------------|
|-----------------------------------------|-------------------------------------|
|-----------------------------------------|-------------------------------------|
|-----------------------------------------|-------------------------------------|
|
| +W                                         W
|-----------------------------------------|-------------------------------------|
|-----------------------------------------|-------------------------------------|
|-----------------------------------------|-------------------------------------|
|-(0)-------------------------------------|-------------------------------------|
|-(0)-------------------------------------|-------------------------------------|
|-(0)-------------------------------------|-------------------------------------|


 Verse
  A5/F#
  Gtr IV
   W                                       +W
|---------------------------------------|-----------------------------------------|
|---------------------------------------|-----------------------------------------|
|-^9------------------------------------|--(9)------------------------------------|
|-^7------------------------------------|--(7)------------------------------------|
|-^9------------------------------------|--(9)------------------------------------|
|---------------------------------------|-----------------------------------------|
|
| Gtr I
|  <                       <         <           <         <         <         <
|  E  +E   +E   +E   +E   +E   +E   +E     +E   +E   +E   +E   +E   +E   +E   +E
|-19-(19)-(19)-(19)-(19)-(19)-(19)-(19)-|-(19)-(19)-(19)-(19)-(19)-(19)-(19)-(19)-|
|-19-(19)-(19)-(19)-(19)-(19)-(19)-(19)-|-(19)-(19)-(19)-(19)-(19)-(19)-(19)-(19)-|
|-16-(16)-(16)-(16)-(16)-(16)-(16)-(16)-|-(16)-(16)-(16)-(16)-(16)-(16)-(16)-(16)-|
|-16-(16)-(16)-(16)-(16)-(16)-(16)-(16)-|-(16)-(16)-(16)-(16)-(16)-(16)-(16)-(16)-|
|---------------------------------------|-----------------------------------------|
|---------------------------------------|-----------------------------------------|


    W                                        +W
|-----------------------------------------|------------------------------------------|
|-----------------------------------------|------------------------------------------|
|-^-9-------------------------------------|--(9)-------------------------------------|
|-^-7-------------------------------------|--(7)-------------------------------------|
|-^-9-------------------------------------|--(9)-------------------------------------|
|-----------------------------------------|------------------------------------------|
|
|        <         <         <         <           <         <         <
|   E   +E   +E   +E   +E   +E   +E   +E      E   +E   +E   +E   +E   +E   +E   +E
|-(19)-(19)-(19)-(19)-(19)-(19)-(19)-(19)-|-(19)-(19)-(19)-(19)-(19)-(19)-(19)-(19)--|
|-(19)-(19)-(19)-(19)-(19)-(19)-(19)-(19)-|-(19)-(19)-(19)-(19)-(19)-(19)-(19)-(19)--|
|--14--(14)-(14)-(14)-(14)-(14)-(14)-(14)-|--16--(16)-(16)-(16)-(16)-(16)-(16)-(16)--|
|-(16)-(16)-(16)-(16)-(16)-(16)-(16)-(16)-|-(16)-(16)-(16)-(16)-(16)-(16)-(16)-(16)--|
|-----------------------------------------|------------------------------------------|
|-----------------------------------------|------------------------------------------|


  Esus2
   W                                       +W
|---------------------------------------|-----------------------------------------|
|-^7------------------------------------|--(7)------------------------------------|
|-^9------------------------------------|--(9)------------------------------------|
|---------------------------------------|-----------------------------------------|
|---------------------------------------|-----------------------------------------|
|---------------------------------------|-----------------------------------------|
|
|  <                       <         <           <         <         <         <
|  E  +E   +E   +E   +E   +E   +E   +E     +E   +E   +E   +E   +E   +E   +E   +E
|-17-(17)-(17)-(17)-(17)-(17)-(17)-(17)-|-(17)-(17)-(17)-(17)-(17)-(17)-(17)-(17)-|
|-17-(17)-(17)-(17)-(17)-(17)-(17)-(17)-|-(17)-(17)-(17)-(17)-(17)-(17)-(17)-(17)-|
|-14-(14)-(14)-(14)-(14)-(14)-(14)-(14)-|-(14)-(14)-(14)-(14)-(14)-(14)-(14)-(14)-|
|-16-(16)-(16)-(16)-(16)-(16)-(16)-(16)-|-(16)-(16)-(16)-(16)-(16)-(16)-(16)-(16)-|
|---------------------------------------|-----------------------------------------|
|---------------------------------------|-----------------------------------------|


   W                                       +W
|---------------------------------------|------------------------------------------|
|-^7------------------------------------|--(7)-------------------------------------|
|-^9------------------------------------|--(9)-------------------------------------|
|---------------------------------------|------------------------------------------|
|---------------------------------------|------------------------------------------|
|---------------------------------------|------------------------------------------|
|
|  <                       <         <           <         <         <         <
|  E  +E   +E   +E   +E   +E   +E   +E     +E   +E   +E   +E   +E   +E   +E   +E
|-17-(17)-(17)-(17)-(17)-(17)-(17)-(17)-|-(17)-(17)-(17)-(17)-(17)-(17)-(17)-(17)--|
|-17-(17)-(17)-(17)-(17)-(17)-(17)-(17)-|-(17)-(17)-(17)-(17)-(17)-(17)-(17)-(17)--|
|-14-(14)-(14)-(14)-(14)-(14)-(14)-(14)-|-(14)-(14)-(14)-(14)-(14)-(14)-(14)-(14)--|
|-16-(16)-(16)-(16)-(16)-(16)-(16)-(16)-|-(16)-(16)-(16)-(16)-(16)-(16)-(16)-(16)--|
|---------------------------------------|------------------------------------------|
|---------------------------------------|------------------------------------------|


  A5/F#
  Gtr I
                                     >
   E  E  E  E  E  E  E  E    E   E   E    E    E    E    E    E
|-------19----19-19----19-|-16-----(16)------(16)------(16)------|
|-------------------------|-----17------(17)------(17)------(17)-|
|----------14-------14----|--------------------------------------|
|----14-------------------|--------------------------------------|
|-------------------------|--------------------------------------|
|-------------------------|--------------------------------------|
|
| Gtr V
|  W                        +W
|-------------------------|--------------------------------------|
|-------------------------|--------------------------------------|
|-^9----------------------|-(9)----------------------------------|
|-^7----------------------|-(7)----------------------------------|
|-^9----------------------|-(9)----------------------------------|
|-------------------------|--------------------------------------|


                                     >
   E  E  E  E  E  E  E  E    E   E   E    E    E    E    E    E
|-------19----19-19----19-|-16-----(16)------(16)------(16)-------|
|-------------------------|-----17------(17)------(17)------(17)--|
|----------14-------14----|---------------------------------------|
|----14-------------------|---------------------------------------|
|-------------------------|---------------------------------------|
|-------------------------|---------------------------------------|
|
|  W                        +W
|-------------------------|---------------------------------------|
|-------------------------|---------------------------------------|
|-^9----------------------|-(9)-----------------------------------|
|-^7----------------------|-(7)-----------------------------------|
|-^9----------------------|-(9)-----------------------------------|
|-------------------------|---------------------------------------|


  Esus2
                                     >
   E  E  E  E  E  E  E  E    E   E   E    E    E    E    E    E
|-------24----24-24----24-|-21-----(21)------(21)------(21)------|
|----22----22-------22----|-----22------(22)------(22)------(22)-|
|-------------------------|--------------------------------------|
|-------------------------|--------------------------------------|
|-------------------------|--------------------------------------|
|-------------------------|--------------------------------------|
|
|  W                        +W
|-------------------------|--------------------------------------|
|-^7----------------------|-(7)----------------------------------|
|-^9----------------------|-(9)----------------------------------|
|-------------------------|--------------------------------------|
|-------------------------|--------------------------------------|
|-------------------------|--------------------------------------|


   E  E  E  E  E  E  E  E    E   E  E  E  E  E  E  E
|----24----24----24----24-|-----21----21----21----21--|
|-22----22----22----22----|-22-----22----22----22-----|
|-------------------------|---------------------------|
|-------------------------|---------------------------|
|-------------------------|---------------------------|
|-------------------------|---------------------------|
|
|  W                        +W
|-------------------------|---------------------------|
|-^7----------------------|-(7)-----------------------|
|-^9----------------------|-(9)-----------------------|
|-------------------------|---------------------------|
|-------------------------|---------------------------|
|-------------------------|---------------------------|


 Pre-Chorus
  B5
  Gtr II
   E  E  E  E  E  E  E  E    E  E  E  E  E  E  E  E
|-------------------------|-------------------------|
|-------------------------|-------------------------|
|-11-11-11----11-11-11----|-12----12----12-12-12----|
|--x--x--x-----x--x--x----|--x-----x-----x--x--x----|
|--9--9--9-----9--9--9----|-10----10----10-10-10----|
|-------------------------|-------------------------|
|
| Gtr I
|  E  E  E  E  E  E  E  E    E  E  E  E  E  E  E  E
|-10----------10----------|-10----------10----------|
|----12----12----12----12-|----12----12----12----12-|
|-------11----------11----|-------11----------11----|
|-------------------------|-------------------------|
|-------------------------|-------------------------|
|-------------------------|-------------------------|
|
| Gtr III
|  E  E  E  E  E  E  E  E    E  E  E  E  E  E  E  E
|-------------------------|-------------------------|
|-------------------------|-------------------------|
|-------------------------|-------------------------|
|--9--9--9-----9--9--9----|--9-----9-----9--9--9----|
|--9--9--9-----9--9--9----|--9-----9-----9--9--9----|
|--9--9--9-----9--9--9----|--9-----9-----9--9--9----|


   E  E  E  E  E  E  E  E    E  E  E  E  E  E  E  E
|-------------------------|--------------------------|
|-------------------------|--------------------------|
|-11-11-11----11-11-11----|-14-14-14-14-13-13-13-13--|
|--x--x--x-----x--x--x----|--x--x--x--x--x--x--x--x--|
|--9--9--9-----9--9--9----|-12-12-12-12-11-11-11-11--|
|-------------------------|--------------------------|
|
|  E  E  E  E  E  E  E  E    E  E  E  E  E  E  E  E
|-10----------10----------|-10----------10-----------|
|----12----12----12----12-|----12----12----12----12--|
|-------11----------11----|-------11----------11-----|
|-------------------------|--------------------------|
|-------------------------|--------------------------|
|-------------------------|--------------------------|
|
|  E  E  E  E  E  E  E  E    E  E  E  E  E  E  E  E
|-------------------------|--------------------------|
|-------------------------|--------------------------|
|-------------------------|--------------------------|
|--9--9--9-----9--9--9----|--9--9--9--9--9--9--9--9--|
|--9--9--9-----9--9--9----|--9--9--9--9--9--9--9--9--|
|--9--9--9-----9--9--9----|--9--9--9--9--9--9--9--9--|


  D5
   E  E  E  E  E  E  E  E    E  E  E  E  E  E  E  E
|-------------------------|-------------------------|
|-------------------------|-------------------------|
|-11-11-11----11-11-11----|-13----13----13-13-13----|
|--x--x--x-----x--x--x----|--x-----x-----x--x--x----|
|--9--9--9-----9--9--9----|-11----11----11-11-11----|
|-------------------------|-------------------------|
|
|  E  E  E  E  E  E  E  E    E  E  E  E  E  E  E  E
|-10----------10----------|-10----------10----------|
|----10----10----10----10-|----10----10----10----10-|
|-------11----------11----|-------11----------11----|
|-------------------------|-------------------------|
|-------------------------|-------------------------|
|-------------------------|-------------------------|
|
|  E  E  E  E  E  E  E  E    E  E  E  E  E  E  E  E
|-------------------------|-------------------------|
|-------------------------|-------------------------|
|-------------------------|-------------------------|
|-12-12-12----12-12-12----|-12----12----12-12-12----|
|-12-12-12----12-12-12----|-12----12----12-12-12----|
|-12-12-12----12-12-12----|-12----12----12-12-12----|


   E  E  E  E  E  E  E  E    E  E  E  E  E  E  E  E
|-------------------------|--------------------------|
|-------------------------|--------------------------|
|-11-11-11----11-11-11----|-14-14-14-14-13-13-13-13--|
|--x--x--x-----x--x--x----|--x--x--x--x--x--x--x--x--|
|--9--9--9-----9--9--9----|-12-12-12-12-11-11-11-11--|
|-------------------------|--------------------------|
|
|  E  E  E  E  E  E  E  E    E  E  E  E  E  E  E  E
|-10----------10----------|-10----------10-----------|
|----10----10----10----10-|----10----10----10----10--|
|-------11----------11----|-------11----------11-----|
|-------------------------|--------------------------|
|-------------------------|--------------------------|
|-------------------------|--------------------------|
|
|  E  E  E  E  E  E  E  E    E  E  E  E  E  E  E  E
|-------------------------|--------------------------|
|-------------------------|--------------------------|
|-------------------------|--------------------------|
|-12-12-12----12-12-12----|-12-12-12-12-12-12-12-12--|
|-12-12-12----12-12-12----|-12-12-12-12-12-12-12-12--|
|-12-12-12----12-12-12----|-12-12-12-12-12-12-12-12--|


  A5
  E  E E  E E  E E  E   E  E E  E  E  E  E  E
|---------------------|-----------------------|
|---------------------|-----------------------|
|-9--9-9----9--9-9----|---13---13-13-13-13----|
|-x--x-x----x--x-x----|----x----x--x--x--x----|
|-7--7-7----7--7-7----|---11---11-11-11-11----|
|---------------------|-----------------------|
|
| E  E E  E E  E E  E   E  E E  E  E  E  E  E
|-9---------9---------|-9----------9----------|
|---10---10---10---10-|---10---10----10----10-|
|------9---------9----|------9-----------9----|
|---------------------|-----------------------|
|---------------------|-----------------------|
|---------------------|-----------------------|
|
| E  E E  E E  E E  E   E  E E  E  E  E  E  E
|---------------------|-----------------------|
|---------------------|-----------------------|
|---------------------|-----------------------|
|-7--7-7----7--7-7----|----7----7--7--7--7----|
|-7--7-7----7--7-7----|----7----7--7--7--7----|
|-7--7-7----7--7-7----|----7----7--7--7--7----|


  E  E E  E E  E E  E    E  E  E  E  E  E  E  E
|---------------------|--------------------------|
|---------------------|--------------------------|
|-9--9-9----9--9-9----|-14-14-14-14-13-13-13-13--|
|-x--x-x----x--x-x----|--x--x--x--x--x--x--x--x--|
|-7--7-7----7--7-7----|-12-12-12-12-11-11-11-11--|
|---------------------|--------------------------|
|
| E  E E  E E  E E  E    E  E  E  E  E  E  E  E
|-9---------9---------|--9-----------9-----------|
|---10---10---10---10-|----10----10----10----10--|
|------9---------9----|--------9-----------9-----|
|---------------------|--------------------------|
|---------------------|--------------------------|
|---------------------|--------------------------|
|
| E  E E  E E  E E  E    E  E  E  E  E  E  E  E
|---------------------|--------------------------|
|---------------------|--------------------------|
|---------------------|--------------------------|
|-7--7-7----7--7-7----|--7--7--7--7--7--7--7--7--|
|-7--7-7----7--7-7----|--7--7--7--7--7--7--7--7--|
|-7--7-7----7--7-7----|--7--7--7--7--7--7--7--7--|


  D5
   E  E  E  E  E  E  E  E    E  E  E  E  E  E  E  E
|-------------------------|-------------------------|
|-------------------------|-------------------------|
|-11-11-11-11-11-11-11-11-|-13-13-13-13-13-13-13-13-|
|--x--x--x--x--x--x--x--x-|--x--x--x--x--x--x--x--x-|
|--9--9--9--9--9--9--9--9-|-11-11-11-11-11-11-11-11-|
|-------------------------|-------------------------|
|
|  E  E  E  E  E  E  E  E    E  E  E  E  E  E  E  E
|-10----------10----------|-10----------10----------|
|----10----10----10----10-|----10----10----10----10-|
|-------11----------11----|-------11----------11----|
|-------------------------|-------------------------|
|-------------------------|-------------------------|
|-------------------------|-------------------------|
|
|  E  E  E  E  E  E  E  E    E  E  E  E  E  E  E  E
|-------------------------|-------------------------|
|-------------------------|-------------------------|
|-------------------------|-------------------------|
|-12-12-12-12-12-12-12-12-|-12-12-12-12-12-12-12-12-|
|-12-12-12-12-12-12-12-12-|-12-12-12-12-12-12-12-12-|
|-12-12-12-12-12-12-12-12-|-12-12-12-12-12-12-12-12-|


   E  E  E  E  E  E  E  E    E  E  E  E  E  E  E  E
|-------------------------|--------------------------|
|-------------------------|--------------------------|
|-14-14-14-14-14-14-14-14-|-14-14-14-14-14-14-14-14--|
|--x--x--x--x--x--x--x--x-|--x--x--x--x--x--x--x--x--|
|-12-12-12-12-12-12-12-12-|-12-12-12-12-12-12-12-12--|
|-------------------------|--------------------------|
|
|  E  E  E  E  E  E  E  E    E  E  E  E  E  E  E  E
|-10----------10----------|-10----------10-----------|
|----10----10----10----10-|----10----10----10----10--|
|-------11----------11----|-------11----------11-----|
|-------------------------|--------------------------|
|-------------------------|--------------------------|
|-------------------------|--------------------------|
|
|  E  E  E  E  E  E  E  E    E  E  E  E  E  E  E  E
|-------------------------|--------------------------|
|-------------------------|--------------------------|
|-------------------------|--------------------------|
|-12-12-12-12-12-12-12-12-|-12-12-12-12-12-12-12-12--|
|-12-12-12-12-12-12-12-12-|-12-12-12-12-12-12-12-12--|
|-12-12-12-12-12-12-12-12-|-12-12-12-12-12-12-12-12--|


   Chorus
    F#5
    Gtr I
     E  S   S    E   E  E  S   S    E   E
||--17----(17)-(12)----14----(14)-(12)----|
||o----17-(17)--15--------17-(17)--15--14-|
||------------------14--------------------|
||----------------------------------------|
||o---------------------------------------|
||----------------------------------------|
|
|   Gtr II
|    E  E        E   E  E  E        E   E
||--12---------(12)-----------------------|
||o----10--------9-----10--9--------------|
||------------------11-------------11---9-|
||----------------------------------------|
||o---------------------------------------|
||----------------------------------------|
|
|   Gtr III
|    E  E        E   E  H
||----------------------------------------|
||o---------------------------------------|
||----------------------------------------|
||---4--4--------4---4--------------------|
||o--4--4--------4---4--------------------|
||---4--4--------4---4--------------------|


   E  S   S    E   E  S S  S  S  S  S  S  S
|-14----(14)-(12)----16---16-16-16-16-16-16--||
|----17-(17)--15--14------------------------o||
|--------------------------------------------||
|--------------------------------------------||
|-------------------------------------------o||
|--------------------------------------------||
|
|  E  E        E   E  E    E     E     E
|--------------------------------------------||
|-------------------------------------------o||
|-11-----------------------------------------||
|----11--------9---7--9S==11S====9S====7-----||
|-------------------------------------------o||
|--------------------------------------------||
|
|  E  E        E   E  H
|--------------------------------------------||
|-------------------------------------------o||
|--------------------------------------------||
|-----4--------4---4-------------------------||
|-----4--------4---4------------------------o||
|-----4--------4---4-------------------------||


    D5
     E  S   S    E   E  E  S   S    E   E
||--17----(17)-(12)----14----(14)-(12)----|
||o----17-(17)--15--------17-(17)--15--14-|
||------------------14--------------------|
||----------------------------------------|
||o---------------------------------------|
||----------------------------------------|
|
|    E  E        E   E  E  E        E   E
||--12---------(12)-----------------------|
||o----10--------9-----10--9--------------|
||------------------11-------------11---9-|
||----------------------------------------|
||o---------------------------------------|
||----------------------------------------|
|
|    E  E        E   E  E  E        E   E
||----------------------------------------|
||o---------------------------------------|
||----------------------------------------|
||---0--0--------0------0--0--------0-----|
||o--0--0--------0------0--0--------0-----|
||---0--0--------0------0--0--------0-----|


   E  S   S    E   E  S S  S  S  S  S  S  S
|-14----(14)-(12)----16---16-16-16-16-16-16--||
|----17-(17)--15--14------------------------o||
|--------------------------------------------||
|--------------------------------------------||
|-------------------------------------------o||
|--------------------------------------------||
|
|  E  E        E   E  E    E     E     E
|--------------------------------------------||
|-------------------------------------------o||
|-11-----------------------------------------||
|----11--------9---7--9S==11S====9S====7-----||
|-------------------------------------------o||
|--------------------------------------------||
|
|  E  E        E   E  E    E     E     E
|--------------------------------------------||
|-------------------------------------------o||
|--------------------------------------------||
|-----0------------0--0----0-----0-----------||
|-----0------------0--0----0-----0----------o||
|-----0------------0--0----0-----0-----------||


    F#5
     E    S   S    E   E  E  S   S    E   E
||--17------(17)-(12)----14----(14)-(12)----|
||o------17-(17)--15--------17-(17)--15--14-|
||--------------------14--------------------|
||------------------------------------------|
||o-----------------------------------------|
||------------------------------------------|
|
|    E    E        E   E  E  E        E   E
||--12-----------(12)-----------------------|
||o------10--------9-----10--9--------------|
||--------------------11-------------11---9-|
||------------------------------------------|
||o-----------------------------------------|
||------------------------------------------|
|
|    PM---------------|
|    S S  e        E   E  H
||------------------------------------------|
||o-----------------------------------------|
||------------------------------------------|
||------------------------------------------|
||o--4-4--4--------4---4--------------------|
||---4-4--4--------4---4--------------------|


   E  S   S    E   E  S S  S  S  S  S  S  S
|-14----(14)-(12)----16---16-16-16-16-16-16--||
|----17-(17)--15--14------------------------o||
|--------------------------------------------||
|--------------------------------------------||
|-------------------------------------------o||
|--------------------------------------------||
|
|  E  E        E   E  E    E     E     E
|--------------------------------------------||
|-------------------------------------------o||
|-11-----------------------------------------||
|----11--------9---7--9S==11S====9S====7-----||
|-------------------------------------------o||
|--------------------------------------------||
|
|     PM----------|
|  E  S   S    E   E  H
|--------------------------------------------||
|-------------------------------------------o||
|--------------------------------------------||
|--------------------------------------------||
|-----4---4----4---4------------------------o||
|-----4---4----4---4-------------------------||


  D5
   E  S   S    E   E  E  S   S    E   E
|-17----(17)-(12)----14----(14)-(12)----|
|----17-(17)--15--------17-(17)--15--14-|
|-----------------14--------------------|
|---------------------------------------|
|---------------------------------------|
|---------------------------------------|
|
|  q           q      q           q
|-17----------17-----17----------17-----|
|---------------------------------------|
|---------------------------------------|
|---------------------------------------|
|---------------------------------------|
|---------------------------------------|
|
|  >
|  W
|---------------------------------------|
|---------------------------------------|
|---------------------------------------|
|--0------------------------------------|
|--0------------------------------------|
|--0------------------------------------|


   E   S   S    E   E  S S  S  S  S  S  S  S
|-14-----(14)-(12)----16---16-16-16-16-16-16-|
|-----17-(17)--15--14------------------------|
|--------------------------------------------|
|--------------------------------------------|
|--------------------------------------------|
|--------------------------------------------|
|
|  q            q      q          q
|-17-----------17-----17---------17----------|
|--------------------------------------------|
|--------------------------------------------|
|--------------------------------------------|
|--------------------------------------------|
|--------------------------------------------|
|
| +W
|--------------------------------------------|
|--------------------------------------------|
|--------------------------------------------|
|-(0)----------------------------------------|
|-(0)----------------------------------------|
|-(0)----------------------------------------|


   E   S   S    E   E  E  S   S    E   E
|-17-----(17)-(12)----14----(14)-(12)----|
|-----17-(17)--15--------17-(17)--15--14-|
|------------------14--------------------|
|----------------------------------------|
|----------------------------------------|
|----------------------------------------|
|
|  q            q      q           q
|-17-----------17-----17----------17-----|
|----------------------------------------|
|----------------------------------------|
|----------------------------------------|
|----------------------------------------|
|----------------------------------------|
|
| +W
|----------------------------------------|
|----------------------------------------|
|----------------------------------------|
|-(0)------------------------------------|
|-(0)------------------------------------|
|-(0)------------------------------------|


   E   S   S    E   E  S S  S  S  S  S  S  S
|-14-----(14)-(12)----16---16-16-16-16-16-16-|
|-----17-(17)--15--14------------------------|
|--------------------------------------------|
|--------------------------------------------|
|--------------------------------------------|
|--------------------------------------------|
|
|  q            q      q          q
|-17-----------17-----17---------17----------|
|--------------------------------------------|
|--------------------------------------------|
|--------------------------------------------|
|--------------------------------------------|
|--------------------------------------------|
|
| +W
|--------------------------------------------|
|--------------------------------------------|
|--------------------------------------------|
|-(0)----------------------------------------|
|-(0)----------------------------------------|
|-(0)----------------------------------------|


 Interlude
  N.C.
  Gtr IV
   T    T T    T             T    T T    T
   E E  E E  E S +S   E E    E E  E E  E S +S   E E
|-------------------------|-------------------------|
|-10s9--------------------|-10s9--------------------|
|-------9-9p=6-9-(9)s11p6-|-------9-9p=6-9-(9)s11p6-|
|-------------------------|-------------------------|
|-------------------------|-------------------------|
|-------------------------|-------------------------|
|
| Gtr II
|  >
|  q    q    q        q      q    q    q        q
|-17---17---17-------17---|-17---17---17-------17---|
|-------------------------|-------------------------|
|-------------------------|-------------------------|
|-------------------------|-------------------------|
|-------------------------|-------------------------|
|-------------------------|-------------------------|


   T   T T   T             T   T T   T
   E E E E E S +S   E E    E E E E E S +S   E E
|-----------------------|------------------------|
|-10s9------------------|-10s9-------------------|
|------9-9p6-9-(9)s11p6-|------9-9p6-9-(9)s11p6--|
|-----------------------|------------------------|
|-----------------------|------------------------|
|-----------------------|------------------------|
|
|  W                       W
|-----------------------|------------------------|
|-----------------------|------------------------|
|-----------------------|------------------------|
|-----------------------|------------------------|
|-----------------------|------------------------|
|-----------------------|------------------------|


  Gtr IV
   T   T T   T             T   T T   T
   E E E E E S +S   E E    E E E E E S +S   E E
|-----------------------|-----------------------|
|-10s9------------------|-10s9------------------|
|------9-9p6-9-(9)s11p6-|------9-9p6-9-(9)s11p6-|
|-----------------------|-----------------------|
|-----------------------|-----------------------|
|-----------------------|-----------------------|


   T   T T   T             T   T T   T
   E E E E E S +S   E E    E E E E E S +S   E E
|-----------------------|------------------------|
|-10s9------------------|-10s9-------------------|
|------9-9p6-9-(9)s11p6-|------9-9p6-9-(9)s11p6--|
|-----------------------|------------------------|
|-----------------------|------------------------|
|-----------------------|------------------------|


 Pre-Chorus
     B5
  Gtr V
   E  E    E    E    E    E  E  E      E    E  E  E    E    E    E  E
|-10----------------10--------------|-10--------------10--------------|
|----12--------12--------12----12---|------12----12--------12------12-|
|---------11----------------11------|---------11----------------11----|
|-----------------------------------|---------------------------------|
|-----------------------------------|---------------------------------|
|-----------------------------------|---------------------------------|
|
| Gtr III
|  PM------------------------------------------------------------------
|  E  S S  S S  S S  S S  Q     S S    S S  Q     S S  S S  S S  Q
|-----------------------------------|---------------------------------|
|-----------------------------------|---------------------------------|
|-----------------------------------|---------------------------------|
|-----------------------------------|---------------------------------|
|-----9-9--9-9--9-9--9-9--------9-9-|--9-9--------9-9--9-9--9-9-------|
|-----9-9--9-9--9-9--9-9--------9-9-|--9-9--------9-9--9-9--9-9-------|


   E  E    E    E    E    E  E  E      E    E  E  E    E    E    E  E
|-10----------------10--------------|-10--------------10--------------|
|----12--------12--------12----12---|------12----12--------12------12-|
|---------11----------------11------|---------11----------------11----|
|-----------------------------------|---------------------------------|
|-----------------------------------|---------------------------------|
|-----------------------------------|---------------------------------|
|
|---------------------------------------------------------------|
|  E  S S  S S  S S  S S  Q     S S    S S  Q     S S  S S  S S  Q
|-----------------------------------|---------------------------------|
|-----------------------------------|---------------------------------|
|-----------------------------------|---------------------------------|
|-----------------------------------|---------------------------------|
|-----9-9--9-9--9-9--9-9--------9-9-|--9-9--------9-9--9-9--9-9-------|
|-----9-9--9-9--9-9--9-9--------9-9-|--9-9--------9-9--9-9--9-9-------|


     D
   E  E     E     E     E     E  E  E       E     E  E  E     E     E     E  E
|-10-------------------10----------------|-10----------------10----------------|
|----10----------10----------10----10----|-------10----10----------10-------10-|
|----------11-------------------11-------|----------11-------------------11----|
|----------------------------------------|-------------------------------------|
|----------------------------------------|-------------------------------------|
|----------------------------------------|-------------------------------------|
|
|     PM------------------------------------------------------------------------
|  E  S  S  S  S  S  S  S  S  Q     S  S    S  S  Q     S  S  S  S  S  S  Q
|----------------------------------------|-------------------------------------|
|----------------------------------------|-------------------------------------|
|----------------------------------------|-------------------------------------|
|----------------------------------------|-------------------------------------|
|-----9--9--9--9--9--9--9--9--------9--9-|--9--9--------9--9--9--9--9--9-------|
|----12-12-12-12-12-12-12-12-------12-12-|-12-12-------12-12-12-12-12-12-------|


   E  E     E     E     E     E  E  E       E     E  E  E     E     E     E  E
|-10-------------------10----------------|-10----------------10----------------|
|----10----------10----------10----10----|-------10----10----------10-------10-|
|----------11-------------------11-------|----------11-------------------11----|
|----------------------------------------|-------------------------------------|
|----------------------------------------|-------------------------------------|
|----------------------------------------|-------------------------------------|
|
|------------------------------------------------------------------------|
|  E  S  S  S  S  S  S  S  S  Q     S  S    S  S  Q     S  S  S  S  S  S  Q
|----------------------------------------|-------------------------------------|
|----------------------------------------|-------------------------------------|
|----------------------------------------|------------------------------------
            
Submit corrections


        This Armistice lessons Hard to play? Try these video lessons and learn fast This Armistice lessons
        
↑ Back to top | Tablatures and chords for acoustic guitar and electric guitar, ukulele, drums are parodies/interpretations of the original songs. You may use it for private study, scholarship, research or language learning purposes only