Home » T » Therapy »

Therapy - Skyward Tabs

Artists:  A B C D E F G H I J K L M N O P Q R S T U V W X Y Z # 

Skyward Tabs

(ver. 1) Click to play this song!
Therapy
 Rating:
4/5 (4 votes)
                SKYWARD

Written by Therapy? (Album Babyteeth Track 2)

The Chords are :

          Verse:                           Chorus:
  B5               G5      D5            G5     D5
E|----------------|----------------|    |----------------|
B|----------------|----------------|    |----------------|
G|4---4--44-4-4-4-|--------7-------|    |--------7-------|
D|4---4--44-4-4-4-|5-5-----7-------|    |5-5-----7-------|
A|2---2--22-2-2-2-|5-5-----5-------|    |5-5-----5-------|
E|----------------|3-3-------------|    |3-3-------------|


The third Verse goes like :

  A5               G5      D5       A5               G5      D5
E|----------------|----------------|----------------|----------------|
B|----------------|----------------|----------------|----------------|
G|----------------|--------7-------|----------------|--------7-------|
D|----------------|5-5-----7-------|----------------|5-5-----7-------|
A|7-7-7-7-7-7-7-7-|5-5-----5-------|7-7-7-7-7-7-7-7-|5-5-----5-------|
E|5-5-5-5-5-5-5-5-|3-3-------------|5-5-5-5-5-5-5-5-|3-3-------------|

I think the solo goes like :

E|----------------|----------------|----------------|----------------|
B|----7-7---------|7-7b8r7--5--7---|7-7b8r7--5--7---|5-7b8r7-5-3---2-|
G|9-9-------------|----------------|----------------|----------------|
D|----------------|----------------|----------------|----------------|
A|----------------|----------------|----------------|----------------|
E|----------------|----------------|----------------|----------------|


Quite an easy song, and i hope you enjoy playin’ it...
            
Submit corrections

↑ Back to top | Tablatures and chords for acoustic guitar and electric guitar, ukulele, drums are parodies/interpretations of the original songs. You may use it for private study, scholarship, research or language learning purposes only