Home » T » Therapy »

Therapy - Hellbelly Tabs

Artists:  A B C D E F G H I J K L M N O P Q R S T U V W X Y Z # 

Hellbelly Tabs

(ver. 1) Click to play this song!
Therapy
 Rating:
4/5 (4 votes)
                
Intro/verse

e
B
G--4-----------5--------------5--4-----------5-----5---0-5-4h5p4
D--4--x--x--x--5--5--x--x--x--5--4--x--x--x--5--5--0-------------5\\\
A--2--x--x--x--3--5--x--x--x--3--2--x--x--x--3--5
E-----x--x--x-----3--x--x--x--------x--x--x-----3

 

Chorus

e---
B--
G--9--9--9--9--9--9--7--7--7---------------
D--9--9--9--9--9--9--7--7--7--7--5--5--5---
A--7--7--0--7--7--0--5--5--5--7--5--5--5---
E--------------------------------5--3--3--3

Post Chorus

e------------------------
B------------------------
G--7--7--7--12--7--7--7--
D--7--7--7--12--7--7--7--7
A--5--5--5--10--5--5--5--7
E------------------------5

Solo

e-------------------------------------12------12-----
B-5/////------10------12------10------10------10--12b
G----------- --9-------9-------9---------------------

e--
B--13--13--13--13--13--13\12--12--12--12\\\\\
G--

Therapy? rock! Can someone please tab out "this one's for you and/or "wicked Man" 
coz I'm too lame to figure it all out :S
            
Submit corrections

↑ Back to top | Tablatures and chords for acoustic guitar and electric guitar, ukulele, drums are parodies/interpretations of the original songs. You may use it for private study, scholarship, research or language learning purposes only