» » »

The Preatures - Cruel Tabs

Artists:  A B C D E F G H I J K L M N O P Q R S T U V W X Y Z # 

Cruel Tabs

(ver. 1) Click to play this song!
The Preatures
 Rating:
4/5 (4 votes)

 Cruel  lessons Tabs too difficult? Try these video lessons and learn fast
 
                INTRO & VERSE
      GMaj                        CMaj                     (intro ends w/)
e ||--3--3-----------------||  ||--3--3------------------||-----------------|
B ||--3--3-----------------||  ||--5--5------------------||-----------------|
G ||--4--4-----------------||  ||--5--5------------------||-----------------|
D ||--5--5--------5---5----||  ||--5--5--------5---5-----||-----------------|
A ||--5--5--x-5-7------7-5-||  ||--3--3--x-5-7-------7-5-||----7/-----------|
E ||--3--3-----------------||  ||------------------------||------3----------|


CHORUS
    GMaj      Emin
e |------------7---7-7-7-------------|
B |--8---------8---8-8-8-------------|
G |--7---------9---9-7-9-------------|
D |--9---------9---9-7-9-------------|
A |--10--------7---7-7-7-------------|
E |----------------------------------|
  
              
VERSE

CHORUS


BRIDGE
  Emin  Bmin (back and forth)
e|--7----7-----------|
B|--8----7-----------|
G|--9----7-----------|
D|--9----9-----------|
A|--7----9-----------|
E|-------7-----------|


SOLO
e|----3--------12----12--12---||-x-12-12-x-x-12-12-x--12-12-12-12-||-----------------------|
B|----3--------12----12--12---||-x-12-12-x-x-12-12-x--12-12-12-12-||-----------------------|
G|----4--------b14--br14-12---||-x-12-12-x-x-12-12-x--12-12-14-12-||----------------12-14--|
D|----5-----------------------||-x-------x-x-------x--------------||-----12-14---14--------|
A|----5-----------------------||----------------------------------||--14-------------------|
E|----3-----------------------||----------------------------------||-----------------------|

e|--------12-----12----------------------------|
B|----12--12-----12----------------------------|
G|---b14------b14----b14-br14---14p12-----~12---|
D|-------------------------------------14------|
A|---------------------------------------------|
E|---------------------------------------------|
   (play this twice too)


CHORUS
            
Submit corrections


        Cruel  lessons Hard to play? Try these video lessons and learn fast Cruel  lessons
        
↑ Back to top | Tablatures and chords for acoustic guitar and electric guitar, ukulele, drums are parodies/interpretations of the original songs. You may use it for private study, scholarship, research or language learning purposes only