» » »

The Pigeon Detectives - Romantic Type Tabs

Artists:  A B C D E F G H I J K L M N O P Q R S T U V W X Y Z # 

Romantic Type Tabs

(ver. 2) Click to play this song!
The Pigeon Detectives
 Rating:
4.7/5 (15 votes)


 Romantic Type lessons Tabs too difficult? Try these video lessons and learn fast
 
                ---------------------------------------------------------------------
              Romantic Type – The Pigeon Detectives
---------------------------------------------------------------------

Awesome Band, go buy there album when its out!

Tuning: Standard

Intro
1st Guitar 
e|-77-7---------9-9--9-------|    ---12---12----12---12--|
B|-99-9---------1010-10------|    ----10----10---10---10-|
G|-99-9---------9-9--11------| x2 -----------------------|      
D|-99-9---------1111-11------|    -----------------------|
A|-77-7---------9-9--9-------|    -----------------------|
E|---------------------------|    -----------------------|
      Let ring       Let ring 

2nd Guitar
e|-----7-------------9----------------------------------------------|
B|-----9-------------10---------------------------------------------|
G|-----9 x8----------11 x8------------------------------------------|
D|-----9-------------11---------------------------------------------|
A|-----7-------------9----------------------------------------------|
E|------------------------------------------------------------------|

Verse
1st Guitar
e|-77-7---------9-9--9-------|     -9--|
B|-99-9---------1010-10------|     -10-|
G|-99-9---------9-9--11------| x2  -11-|   
D|-99-9---------1111-11------|     -11-|
A|-77-7---------9-9--9-------|     -9--|
E|---------------------------|     ----|
      Let ring       Let ring      Strum Lots, listen to the song.

2nd Guitar
e|-----7-------------9----------------------------------------------|
B|-----9-------------10---------------------------------------------|
G|-----9 x8----------11 x8------------------------------------------|
D|-----9-------------11---------------------------------------------|
A|-----7-------------9----------------------------------------------|
E|------------------------------------------------------------------|

Chorus
1st Guitar
e|------------------------------------------------------------------|
B|-12-9-5-7-5---5-7-5---------12-9-5-7-5--5-7-5---------------------|
G|------------6-------6/8-9-------------6-------6-8h9p8-------------|
D|------------------------------------------------------------------|
A|------------------------------------------------------------------|
E|------------------------------------------------------------------|

2nd Guitar
e|---4---------7----------5-----/-7-------------------------------|
B|---5---------7----------5-----/-7-------------------------------|
G|---6---------8----------6-----/-8-------------------------------|x2
D|---6---------9----------7-----/-9-------------------------------|
A|---4---------9----------7-----/-9-------------------------------|
E|-------------7----------5-----/-7-------------------------------|
Strum first 3 chords

Bridge
1st Guitar
e|------------------------------------------------------------------|
B|------12----------------------12----------------------------------|
G|---11b—-11r-9------9----9-11b----11r-9h-11p9-8h9p8/4-6------------|
D|--------------9-11------------------------------------------------|
A|------------------------------------------------------------------|
E|------------------------------------------------------------------|

2nd Guitar
e|----7------5------7------5-/-4-/-2--------------------------------|
B|----7------5------7------5-/-4-/-2--------------------------------|
G|----8------6------8------6-/-4-/-2--------------------------------|
D|----9------7------9------7-/-6-/-4--------------------------------|
A|----9------7------9------7-/-6-/-4-------------------------------|
E|----7------5------7------5-/-4-/-2--------------------------------|

Solo
1st Guitar
e|------------------------------------------------------------------|
B|-----------------------------------------------------17-------17--|
G|-8-9---------9-11-9-9-11-9-11b11r-9-11b11r-9---16-18----16-18-----|
D|------------------------------------------------------------------|
A|------------------------------------------------------------------|
E|------------------------------------------------------------------|

e|------------------------------------------------------------------|
B|-------17-------17-------17---------------------------------------|
G|-16-18----14-16----14-16----14-13-11-9-11-9-14-13-11-9-11---------|
D|------------------------------------------------------------------|
A|------------------------------------------------------------------|
E|------------------------------------------------------------------|

e|------------------------------------------------------------------|
B|-----------------------------------------------------9---9---9----|
G|-13-14-11-13-9-11-8-9-6-8-4-6-2-1-222-444-666-888-9-11b-11b-11b---|
D|------------------------------------------------------------------|
A|------------------------------------------------------------------|
E|------------------------------------------------------------------|

e|---9--------------------------------------------------------------|
B|-9--12-9-12-----------------------9--9--9--9--9--9---12b12b12b12b-|
G|------------11-9-11---------9-11—11b11b11b11b11b11b---------------|
D|--------------------11-9-11---------------------------------------|
A|------------------------------------------------------------------|
E|------------------------------------------------------------------|
 
2nd Guitar
Play Verse underneath Solo

Intro 
Verse
Chorus
Verse
Chorus
Solo
Chorus
            
Submit corrections



        Romantic Type lessons Hard to play? Try these video lessons and learn fast Romantic Type lessons
        
↑ Back to top | Tablatures and chords for acoustic guitar and electric guitar, ukulele, drums are parodies/interpretations of the original songs. You may use it for private study, scholarship, research or language learning purposes only