Home » T » Theory Of A Deadman »

Theory Of A Deadman - Angel Chords

Artists:  A B C D E F G H I J K L M N O P Q R S T U V W X Y Z # 

Angel Chords

(ver. 1) Click to play this song!
Theory Of A Deadman
Intro
 Am              C               |G               F               ||
---------------------------------|--------------------------------|
---------------------------------|--------------------------------|
---5---5---5---5---9---9---9---9-|--4---4---4---4---2---2---2---2-|
-7---7---7---7--/10--10--10--10--|5---5---5---5---3---3---3---3---|
---------------------------------|--------------------------------|
---------------------------------|--------------------------------|


Verse 1
                    Am   C           G    F
Im in love with an angel, heaven forbid
             Am   C                        G    F
Made me a believer with the touch of her skin

    Am              C                   G               F
I'd go to hell and back with you still lost in what we found
Am               C               G                F
Worlds apart we were the same until you hit the ground


Chorus
           Am               C                G                F
Maybe I'm crazy, maybe I'm weak, maybe I'm blinded by what I see
              Am                    C                   G              F
You wanted a soldier but it wasn't me because we could never set you free
    Am   C    G       F
So fly (high) on your own
     Am  C  G       F
Its time I let you go; go!


Interlude   

Am             C                |G              F                ||x2
--------------------------------|--------------------------------|
--5-3-1-5-3-1----5-3-1-5-3-1----|--5-3-1-5-3-1----5-3-1-5-3-1----|
--5-4-2-5-4-2----5-4-2-5-4-2----|--5-4-2-5-4-2----5-4-2-5-4-2----|
--------------------------------|--------------------------------|
--------------------------------|--------------------------------|
--------------------------------|--------------------------------|


Verse 2
                    Am   C                     G    F
I'm in love with an angel who's afraid of the light
                Am  C                         G    F
Whose halo is broken but there's fight in her eyes
 Am                 C              G                    F
Walls are built to keep us safe until they're crashin' down
 Am              C               G                F
Worlds apart we were the same until you hit the ground


Chorus
           Am               C                G                F
Maybe I'm crazy, maybe I'm weak, maybe I'm blinded by what I see
              Am                    C                   G              F
You wanted a soldier but it wasn't me because we could never set you free
    Am   C    G       F
So fly (high) on your own
     Am  C  G       F
Its time I let you go; go!


Interlude    Am  C   |G   F   ||x2


 Am                 C              G                    F
Walls are built to keep us safe until they're crashin' down
 Am              C               G                F
Worlds apart we were the same until you hit the ground


Chorus
           Am               C                G                F
Maybe I'm crazy, maybe I'm weak, maybe I'm blinded by what I see
              Am                    C                   G              F
You wanted a soldier but it wasn't me because we could never set you free
    Am   C    G       F
So fly (high) on your own
     Am  C  G       F
Its time I let you go
    Am   C    G       F
So fly (high) on your own
     Am  C  G       F
Its time I let you go; go!


Interlude    Am  C   |G   F   |Am  C  |G   F   ||
                           Go!
            
Submit corrections

↑ Back to top | Tablatures and chords for acoustic guitar and electric guitar, ukulele, drums are parodies/interpretations of the original songs. You may use it for private study, scholarship, research or language learning purposes only