» » »

The Offspring - Dirty Magic Tabs

Artists:  A B C D E F G H I J K L M N O P Q R S T U V W X Y Z # 

Dirty Magic Tabs

(ver. 1) Click to play this song!
The Offspring
 Rating:
4/5 (4 votes)


 Dirty Magic lessons Tabs too difficult? Try these video lessons and learn fast
 
                (Complete)
Dirty Magic

Intro (Guitar 1)/Verse

e|-------------------------------------------------------------
B|-------------------------------------------------------------
G|-------------------------------------------------------------
D|-------------------------------------------------------------
A|-----------7-----7--------10-------9-------------------------
E|-0-0-3/5-5---5-5--5-5/8-8----8\7-7---7-0-7-0-8-7-0-7-0-8-7-3-

Intro (Guitar 2)

e|-0-0-0-0-0-0-0-0-0-0-0-0-0-0-0-0-0-0-0-0-0-0-0-0-0-0-0-0-0-0-0-0-0-0-
B|-5-5-5-5-5-5-5-5-5-5-5-5-3-3-3-3-5-5-5-5-5-5-5-5-5-5-5-5-3-3-5-5-0-0-
G|---------------------------------------------------------------------
D|---------------------------------------------------------------------     X2
A|---------------------------------------------------------------------
E|---------------------------------------------------------------------

Let last note ring

Chorus (Guitar 1)

e|---------------------------------------------
B|---------------------------------------------
G|-7/9-9-9-9-9-7/9-9-9-9-9-----------7-7-7-7-7-
D|-7/9-9-9-9-9-7/9-9-9-9-9-5-5-5-5-5-7-7-7-7-7-     X3
A|-5/7-7-7-7-7-5/7-7-7-7-7-5-5-5-5-5-5-5-5-5-5-
E|-------------------------3-3-3-3-3-----------

e|----------------------------
B|----------------------------
G|----------------------------
D|-7-7-7-7-7-10-10-10-9-9-9-2-    Let last note ring
A|-7-7-7-7-7-10-10-10-9-9-9-2-
E|-5-5-5-5-5--8--8--8-7-7-7-0-

Chorus (Guitar 2)

e|---------------------------------------------
B|---------------------------------------------
G|-7/9-9-9-9-9-7/9-9-9-9-9-----------7-7-7-----
D|-7/9-9-9-9-9-7/9-9-9-9-9-5-5-5-----7-7---7---     X3
A|-5/7-7-7-7-7-5/7-7-7-7-7-5-5---5---5-5-----5-
E|-------------------------3-3-----3-----------

e|----------------------------
B|----------------------------
G|----------------------------
D|-7-7-7-7-7-10-10-10-9-9-9-2-   Let Last note ring
A|-7-7-7-7-7-10-10-10-9-9-9-2-
E|-5-5-5-5-5--8--8--8-7-7-7-0-

Intro (Guitar 2 X2) with verse
Chorus (Both Guitars playing together)
Intro (Guitar 2, leads off into a solo) with verse

Solo (Guitar 2)

e|---------------------------------------------7-
B|-3-3-3-5-5-5-5-5-5-5-5-5-5-3-3-3-3-5-5-0-0-0---
G|-----------------------------------------------
D|-----------------------------------------------     X2
A|-----------------------------------------------
E|-----------------------------------------------

Switches to this...

e|-7-7-7-7-7-7-8-8-8-8-8-8-8-8-7-7-5-5-3-3-5-7-7-7-7-
B|---------------------------------------------------
G|---------------------------------------------------
D|---------------------------------------------------    X2
A|---------------------------------------------------
E|---------------------------------------------------

Then this...

e|---------------------------------------------------
B|-5-5-5-3-3-3-5-5-5-5-5-5-5-5-5-5-3-3-3-3-5-5-0-0-0-
G|---------------------------------------------------
D|---------------------------------------------------
A|---------------------------------------------------
E|---------------------------------------------------

Chorus (Both Guitars playing together)
            
Submit corrections



        Dirty Magic lessons Hard to play? Try these video lessons and learn fast Dirty Magic lessons
        
↑ Back to top | Tablatures and chords for acoustic guitar and electric guitar, ukulele, drums are parodies/interpretations of the original songs. You may use it for private study, scholarship, research or language learning purposes only