Home » T » The Neighbourhood »

The Neighbourhood - West Coast Tabs

Artists:  A B C D E F G H I J K L M N O P Q R S T U V W X Y Z # 

West Coast Tabs

(ver. 1) Click to play this song!
The Neighbourhood
Intro:

Guitar 1:    D: --18--17--15h17p15--13h15--11-10--|
             A: ----------------------------------|
             F: ----------------------------------|
             C: 17--------------------------------|
             G: ----------------------------------|
             D: ----------------------------------|


 Guitar 2 :  D: ---------------------------------|
             A: 3---------6----------8--------3--|
             F: 3---------5----------8--------3--|
             C: ---------------------------------|
             G: ---------------------------------|
             D: ---------------------------------|


 (Guitar 3) :  D: -8b9---------------8b9---------|
               A: -------------------------------|
               F: -------------------------------|
               C: -------------------------------|
               G: -------------------------------|
               D: -------------------------------|



 Verse :

            D: -------------9-----10----------------------------------15--------------------------(18)---|
            A-------------- 11----11------------------------------11------------------------------(20)---|
            F: -------------11----12------(12)-----------------12----------------------------------------|
            C: ----------------------------- -(13--12)---------------------------------------------------|
            G: ------------------------------------------------------------------------------------------|
            D: ------------------------------------------------------------------------------------------|

 Pre-Chorus : (Fingerpicking)

            D: ---------------------------------|
            A: 3---------6----------8--------3--|
            F: 3---------5----------8--------3--|
            C: ---------------------------------|
            G: ---------------------------------|
            D: ---------------------------------|

 Chorus :
           D:--3---------6---------8--------3--|
           A:--3---------6---------8--------3--|
           F:--3---------7---------8--------3--|
           C:--5---------8---------10-------5--|
           G:--5---------8---------10-------5--|
           D:--3---------6---------8--------3--|


Outro:


 Guitar 1:   D: --18--17--15h17p15--13h15--11-10--|
             A: ----------------------------------|
             F: ----------------------------------|
             C: 17--------------------------------|
             G: ----------------------------------|
             D: ----------------------------------|


 Guitar 2 : D: ----------------------------------|
             A: 3---------6----------8--------3--|
             F: 3---------5----------8--------3--|
             C: ---------------------------------|
             G: ---------------------------------|
             D: ---------------------------------|            
Submit corrections

↑ Back to top | Tablatures and chords for acoustic guitar and electric guitar, ukulele, drums are parodies/interpretations of the original songs. You may use it for private study, scholarship, research or language learning purposes only