Home » T » The Neighbourhood »

The Neighbourhood - Warm Tabs

Artists:  A B C D E F G H I J K L M N O P Q R S T U V W X Y Z # 

Warm Tabs

(ver. 1) Click to play this song!
The Neighbourhood
[Verse]

e|--0-0-0----0-0-0----0-0-0----0-0-0----0-0-0----0-0-0---------------0-0-0-0-|
B|--------------------------------------------------------4-4-4-4------------|
G|---------------------------------------------------------------------------|
D|--2-2-2----2-2-2----2-2-2----2-2-2----2-2-2----2-2-2----1-1-1-1----2-2-2-2-|
A|---------------------------------------------------------------------------|
E|---------------------------------------------------------------------------|


[Chorus]

"I tried you love you baby, in every way, in e-very way, y-eah"

Em, B, Am | Em, B, Am, B <-- (Looking for a better chord to replace the second B)

e|---------2------------------2---------2------------------------------------|
B|---------4----1-------------4----1----4------------------------------------|
G|---------4----2-------------4----2----4------------------------------------|
D|----2----4----2--------2----4----2----4------------------------------------|
A|----2----2-------------2----2---------2------------------------------------|
E|---------2------------------2---------2------------------------------------|

[Verse]

Note the small variance in the first measure

e|--0-0-0----0-0-0-------------0-0-0----0-0-0----0-0-0----0-0-0-0----0-0-0-0-|
B|--------------------4-4-4--------------------------------------------------|
G|---------------------------------------------------------------------------|
D|--2-2-2----2-2-2----1-1-1----2-2-2----2-2-2----2-2-2----2-2-2-2----2-2-2-2-|
A|---------------------------------------------------------------------------|
E|---------------------------------------------------------------------------|

Second measure retains the same structure

e|--0-0-0----0-0-0----0-0-0----0-0-0----0-0-0----0-0-0---------------0-0-0-0-|
B|--------------------------------------------------------4-4-4-4------------|
G|---------------------------------------------------------------------------|
D|--2-2-2----2-2-2----2-2-2----2-2-2----2-2-2----2-2-2----1-1-1-1----2-2-2-2-|
A|---------------------------------------------------------------------------|
E|---------------------------------------------------------------------------|


[Chorus]

The chorus is played twice in this section.

Em, B, Am | Em, B, Am, B

e|---------2------------------2---------2------------------------------------|
B|---------4----1-------------4----1----4------------------------------------|
G|---------4----2-------------4----2----4------------------------------------|
D|----2----4----2--------2----4----2----4------------------------------------|
A|----2----2-------------2----2---------2------------------------------------|
E|---------2------------------2---------2------------------------------------|

Em, B, Am | Em, B, Am, B

e|---------2------------------2---------2------------------------------------|
B|---------4----1-------------4----1----4------------------------------------|
G|---------4----2-------------4----2----4------------------------------------|
D|----2----4----2--------2----4----2----4------------------------------------|
A|----2----2-------------2----2---------2------------------------------------|
E|---------2------------------2---------2------------------------------------|


[Outro]

e|--3----5-5------0---7-5-3-2-2-3----5-5----5------0----7-5-5-3-2-0-0--------|
B|-----------4------4-------------------------4------4-----------------------|
G|---------------------------------------------------------------------------|
D|---------------------------------------------------------------------------|
A|---------------------------------------------------------------------------|
E|---------------------------------------------------------------------------|            
Submit corrections

↑ Back to top | Tablatures and chords for acoustic guitar and electric guitar, ukulele, drums are parodies/interpretations of the original songs. You may use it for private study, scholarship, research or language learning purposes only