Home » T » The Neighbourhood »

The Neighbourhood - Staying Up Tabs

Artists:  A B C D E F G H I J K L M N O P Q R S T U V W X Y Z # 

Staying Up Tabs

(ver. 1) Click to play this song!
The Neighbourhood
Tuning: Drop D

Verse

e|---------------------------------------------------------------------------|
B|---------------------------------------------------------------------------|
G|---------------------------------------------------------------------------|
D|-9----6----0----2----------------------------------------------------------|
A|-9-X8-6-X8-0-X8-2-X8-------------------------------------------------------|
D|-9----6----0----2----------------------------------------------------------|

Last line of verse

e|---------------------------------------------------------------------------|
B|---------------------------------------------------------------------------|
G|---------------------------------------------------------------------------|
D|-9----6----0----2----0-----------------------------------------------------|
A|-9-X8-6-X8-0-X8-2-X8-0-X4--------------------------------------------------|
D|-9----6----0----2----0-----------------------------------------------------|

Chorus 

e|---------------------------------------------------------------------------|
B|---------------------------------------------------------------------------|
G|---------------------------------------------------------------------------|
D|-9----6----0----2----------------------------------------------------------|
A|-9-X8-6-X8-0-X8-2-X8-------------------------------------------------------|
D|-9----6----0----2----------------------------------------------------------|





"Oh the time..."

e|---------------------------------------------------------------------------|
B|---------------------------------------------------------------------------|
G|--------------------------------6------------------------------------------|
D|--2----9----2----9----2----9----6-X4-5-------------------------------------|
A|--2-X4-9-X4-2-X4-9-X4-2-X4-9-X4-4----5-------------------------------------|
D|--2----9----2----9----2----9---------5-------------------------------------|
            
Submit corrections

↑ Back to top | Tablatures and chords for acoustic guitar and electric guitar, ukulele, drums are parodies/interpretations of the original songs. You may use it for private study, scholarship, research or language learning purposes only