Home » T » The Neighbourhood »

The Neighbourhood - Noise intro Tabs

Artists:  A B C D E F G H I J K L M N O P Q R S T U V W X Y Z # 

Noise intro Tabs

(ver. 1) Click to play this song!
The Neighbourhood
[Intro]
e|--------------------------------------------------------------|
B|--7--8-7------------------------------------------------------|
G|---------9-7---9----------------------------------------------|
D|-------------9------------------------------------------------|
A|--------------------------------------------------------------|
E|--------------------------------------------------------------|

e|--------------------------------------------------------------|
B|--7--8-7------------------------------------------------------|
G|---------9-7---9----------------------------------------------|
D|-------------9------------------------------------------------|
A|--------------------------------------------------------------|
E|--------------------------------------------------------------|            
Submit corrections

↑ Back to top | Tablatures and chords for acoustic guitar and electric guitar, ukulele, drums are parodies/interpretations of the original songs. You may use it for private study, scholarship, research or language learning purposes only