Home » T » The National »

The National - Travelling Tabs

Artists:  A B C D E F G H I J K L M N O P Q R S T U V W X Y Z # 

Travelling Tabs

(ver. 1) Click to play this song!
The National
National	
Traveling
Composed and written by Christopher santaw

(This song is a slow song and you have to have a beat with it right on time or it doesn’t sound right)(You’ll see what I mean)


Intro
E|-------------------------------------------------------------------
B|-------------------------------------------------------------------              G|-------------------------------------------------------------------
D|-----9--------11-------6-------8-------9-------7-------4-------2---
A|---9---9---11---11---6---6---8---8---9---9---7---7---4---4---2---2-
E|-7-------9---------4-------6-------7-------4-------2-------0-------

Verse
(On a certain word you hit the chord and you don’t strum it)
E|---------------------------------------x2
B|---------------------------------------
G|-6------------------------------------
D|-6----------4--------8------------6--
A|-4----------4--------8------------6--
E|------------2--------6------------4--
(Travelling, away… far, today… gonna, a lot…much, pop... kinda like that use your discretion) 
(You hit the chord on the word show above)


Chorus
E|-------------------------------------x2
B|-------------------------------------
G|-66666666----------------------------
D|-66666666-44444444-88888888-66666666-
A|-44444444-44444444-88888888-66666666-
E|----------22222222-66666666-44444444-

Verse
Chorus

Interlude
E|-7------4-----6-----2--x2
B|-----------------------
G|-----------------------
D|-----------------------
A|-----------------------
E| ----------------------
Play once before every line in the lyrics

Lyrics

Im traveling away
To a far off place today
Im gonna miss you a lot
So much im gonna pop

Your gonna be in my mind 
Through out the whole vehicle ride
And everything I find
Will bring you up in my mind

Chorus
Im travelling 
To a far off place
Im gonna miss you a lot
I feel like im misplaced

I will miss you 
I wanna kiss you 
I just wanna hold you 
So I can’t miss you

Verse 2

I’ll be all alone
Sitting alone
Thinking about all the times 
We talked on the phone

I’ll be missing you 
I’ll be having fun
But inside
I’ll hate everyone

Chorus

Interlude
I’m travelling away
I hate it 
I wanna stay
But I won’t make it
(Repeat)
End
            
Submit corrections

↑ Back to top | Tablatures and chords for acoustic guitar and electric guitar, ukulele, drums are parodies/interpretations of the original songs. You may use it for private study, scholarship, research or language learning purposes only