Home » T » The National »

The National - This Is The Last Time Tabs

Artists:  A B C D E F G H I J K L M N O P Q R S T U V W X Y Z # 

This Is The Last Time Tabs

(ver. 3) Click to play this song!
The National
Took me a while to work this out (and it might not be how they actually recorded it) but 
I got annoyed at the fact that there's no tabs for this song that sound like the studio 
version. The tuning's a bit weird but just go with it and it'll sound right when played along.

The tuning's Eb, G, F, G, B, E from the low to high strings. The Eb should be a semitone 
lower than the normal E, the G is one octave lower than the higher G, and the F string 
should be lower than the previous G string if that makes sense.

Verses:

E|------------------------------------------------------------------|
B|------------------------------------------------------------------|
G|-----------------------------------------0-------0----------------|
F|--0--0--0--------2--2--2\4/2p0------------------------------------|   Repeat
G|--5-----5\7/5/3--0-----0---------3--3-------3-------3----3--------|
Eb|--------------------------------0--0--0-------0-------0----------|

Choruses:

E|------------------------------------------------------------------|
B|------------------------------------------------------------------|
G|------------------------------------------------------------------|
F|--0--0--0--------2--2--2\4/2p0--5--5----5-------5-----------------|  Repeat
G|--5-----5\7/5/3--0-----0--------3--3------3-------3------3--------|
Eb|-------------------------------2--2--2------2-------2------------|

Bridge:

(This is pure improvisation but still sounds alright when played along to the song)!

E|-----------------------------------------------------------------------|
B|-----------------------------------------------------------------------|
G|-----------------------------------------------------------------------|
F|----0---0---0---2---3---3---3---3---3---3---3---3---2---2---2---2------|  Repeat
G|-----------------------------------------------------------------------|
Eb|-2---2---2---2---2---2---2---2---0---0---0---0---0---0---0---0--------|

Then just carry on playing that 'till the end!

Enjoy :-)
            
Submit corrections

↑ Back to top | Tablatures and chords for acoustic guitar and electric guitar, ukulele, drums are parodies/interpretations of the original songs. You may use it for private study, scholarship, research or language learning purposes only