Home » T » The National »

The National - The Way I Feel Tabs

Artists:  A B C D E F G H I J K L M N O P Q R S T U V W X Y Z # 

The Way I Feel Tabs

(ver. 1) Click to play this song!
The National
THE WAY I FEEL
COMPOSED AND WRITTEN BY CHRISTOPHER SANTAW
VERSE 1 

E|--------------------------------------------------------------------
B|--------------------------------------------------------------------
G|-66666666-44444444-2222222222222222-----------------
D|-66666666-44444444-2222222222222222-----------------
A|-44444444-22222222-0000000000000000-----------------
E|--------------------------------------------------------------------
    |--------------------------PM--------------------|

CHORUS                                                                          
E|-------------------------------------------------------------x2----
B|--------------------------------------------------------------------
G|-5-7-8---7-5-7-5-3-1-------------------------------------------
D|--------5----------------------------------------------------------
A|--------------------------------------------------------------------
E|--------------------------------------------------------------------

E|---------------------------------------------------------------x2---
B|-5-7-8---5-7-8---5-7-8-7-5------------------------------------
G|--------5--------5------------------------------------------------
D|-------------------------------------------------------------------
A|-------------------------------------------------------------------
E|-------------------------------------------------------------------

VERSE 2
E|-----------------------------------------------------------------------------------------------------------------x2
B|-------------------------------------------------------------------------------------------------------------------
G|-------------------------------------------------------------------------------------------------------------------
D|-66666666-44444444-22222222-6666666666666666-44444444-22222222-6666666666666666-
A|-66666666-44444444-22222222-6666666666666666-44444444-22222222-6666666666666666-
E|-44444444-22222222-00000000-4444444444444444-22222222-00000000-4444444444444444-
   |-----------------------------------------------PM----------------------------------------------------------------|
SOLO
E|--7---7--5---5--4---4--5---5--x2
G|---5-------5-------5------5----
B|----------------------------------
D|----------------------------------
A|----------------------------------
E|----------------------------------

verse 1
chorus
verse 2
chorus
solo
chorus x2
            
Submit corrections

↑ Back to top | Tablatures and chords for acoustic guitar and electric guitar, ukulele, drums are parodies/interpretations of the original songs. You may use it for private study, scholarship, research or language learning purposes only