Home » T » The National »

The National - The Things That Make Me Love You Tabs

Artists:  A B C D E F G H I J K L M N O P Q R S T U V W X Y Z # 

The Things That Make Me Love You Tabs

(ver. 1) Click to play this song!
The National
The things that make me love you
National
Composed and written by Christopher Santaw

Intro
E|-3-3-3-3-3-3-3-3-3-3-3-3-3-3-3-3-
B|-3-3-3-3-3-3-3-3-3-3-3-3-3-3-3-3-
G|-0-0-0-0-0-0-0-0-0-0-0-0-0-0-0-0-
D|-0-0-0-0-0-0-0-0-2-2-2-2-2-2-2-2-
A|-2-2-2-2-0-0-0-0-2-2-2-2-3-3-3-3-
E|-3-3-3-3-2-2-2-2-----------------                    

Verse
(The beat is 1 and 2 and 3 and 4 slowly)

E|-3-3-3-3-3-3-3-3-3-3-3-3-3-3-3-3-3-3-3-3-3-3-3-3-3-3-3-3-3-3-3-3-x2
B|-3-3-3-3-3-3-3-3-3-3-3-3-3-3-3-3-3-3-3-3-3-3-3-3-3-3-3-3-3-3-3-3-
G|-0-0-0-0-0-0-0-0-0-0-0-0-0-0-0-0-0-0-0-0-0-0-0-0-0-0-0-0-0-0-0-0-
D|-0-0-0-0-0-0-0-0-0-0-0-0-0-0-0-0-2-2-2-2-2-2-2-2-2-2-2-2-2-2-2-2-
A|-2-2-2-2-2-2-2-2-0-0-0-0-0-0-0-0-2-2-2-2-2-2-2-2-3-3-3-3-3-3-3-3-
E|-3-3-3-3-3-3-3-3-2-2-2-2-2-2-2-2---------------------------------         

Chorus
E|-------------------------------------x2
B|----------77777777-------------------
G|-55555555-77777777-77777777-99999999-
D|-55555555-55555555-77777777-99999999-
A|-33333333----------55555555-77777777-
E|--------------------------------------

Interlude
E|------------------------------------x2
B|------------------------------------
G|--0-0-0-8-0-0-0-8-0-0-0----0-0-0----
D|-6-6-6-6-6-6-6-6-6-6-6-6--6-6-6-6---
A|------------------------6---------6-
E|------------------------------------

Intro
Verse
Chorus
Verse
Chorus
Interlude
Chorus

Lyrics

Verse 1

There’s a couple of reasons
That make me love you 
Instead of changing with the seasons 
I stay in love with you
    (o\o) background singers sing it down
You know you drive me crazy
When you look at me
    (o/o) sing it up
You know I love you 
And you make me happy

Chorus
And those are some things
That make me love you 
And those are some things 
That made me fall for you
(Repeat)

Verse 2

There’s a couple more reasons why
I love you
It’s the way you make me feel
When im with you
    (o\o) going down
But when you don’t call
I get scared
   (o/o) going up
but when I hear your voice 
I know your true

Chorus
Interlude
Chorus
            
Submit corrections

↑ Back to top | Tablatures and chords for acoustic guitar and electric guitar, ukulele, drums are parodies/interpretations of the original songs. You may use it for private study, scholarship, research or language learning purposes only