Home » T » The National »

The National - The Rains Of Castamere Bass

Artists:  A B C D E F G H I J K L M N O P Q R S T U V W X Y Z # 

The Rains Of Castamere Bass

(ver. 1) Click to play this song!
The National
I figured this out using a chart of a bass neck and the chords for the song. It's not a 
very complicated song once you get the hang of it, but it's a good one.

Standard Tuning: EADG
50 bpm

Verse:

G------------------------|
D------------------------|
A-5-0-5-0-5-0-3-3-3-0-5--|
E--------------1-1-3-----|


Chorus:

G-------------------------|
D-------------------------|
A-5-0-5-0-----0-5-----0-5-|
E--------6-3-6---6-3-6----|


Verse x2
Chorus x1
Verse x2
Chorus x1
            
Submit corrections

↑ Back to top | Tablatures and chords for acoustic guitar and electric guitar, ukulele, drums are parodies/interpretations of the original songs. You may use it for private study, scholarship, research or language learning purposes only