Home » T » The National »

The National - Selfish Not Messed Up Tabs

Artists:  A B C D E F G H I J K L M N O P Q R S T U V W X Y Z # 

Selfish Not Messed Up Tabs

(ver. 1) Click to play this song!
The National
SELFISH 
COMPOSED AND WRITTEN BY CHRIS SANTAW
INTRO GUITAR 1
E|--0~--2~--2~--3~--|--------------------|-x4-----------------------x2             G|--0~--3~--2~--0~--|--------[SLOW]------|-----------------------------
B|--1~--2~--2~--0~--|------6-----6---6---|--6-------------------------
D|--2~--0~--2~--0~--|------6-----6---6---|--6-x8-4----8----6------
A|--2~--0~--0~--0~--|--4-4-4-4-4-4-4-4---|--4----4-x8-8-x8-6-x8-
E|--0~--0~--0~--0~--|--------------------|-------2----6----4----
                      |----------PM----------------------|
INTRO GUITAR 2 (COMES IN AFTER THE INTRO ON GUITAR 1 BEFORE THE BAR)
E|---------------------|X2---------------------------------------------------
G|-----------------8---|-----------------------------------------------------
B|-------6---------8-X8|------10----------12----8----10----------------------
D|-4-----6-X8-6----6---|--8---10-X8-10----12-X8-8-X8-10-X8-10----12----12----       A|-4-X8--4----6-X8-----|--8-X8-8----10-X8-10----6-----8----10-X8-12-X8-12-X8-
E|-2----------4--------|--6----------8----------------------8----10----10----
  |------------------------------P-M----------------------------------------|
VERSE (BOTH GUITARS)
E|-------------------------------------------------|x2-----------
G|-8-8-----8---------------------------------------|-------------
B|-8-8-X16-8---8-8-----8--10-10-----10---6-6-----6-|-10-10-10-10-
D|-6-6-----6---8-8-x16-8--10-10-x16-10---6-6-X16-6-|-10-10-10-10-
A|-------------6-6-----6---8--8------8---4-4-----4-|--8--8--8--8-
E|-------------------------------------------------|-------------
     *           *            *            *          *  *  *  *
PRE CHORUS (BOTH GUITARS)
E|-------------------------------------
G|-------------------------------------
B|-3---------6-----3-------------------
D|-3-X8-4----6-X16-3-X8-4----8----6----
A|-1----4-X8-4-----1----4-X8-8-X8-6-X8-
E|------2---------------2----6----4----

CHORUS GUITAR 2                                    CHORUS GUITAR 1
E|-------------------------|x2--    E|------------------
G|-------------------------|----    G|------------------
B|--------5-----7----------|----    B|------------------  
D|--3-----5-x16-7-x16-8----|-10-    D|-1-2-2---2------(PLAY THROUGH CHORUS)
A|--3-x16-3-----5-----8-x16|--8-    A|-------2---2------
E|--1-----------------6----|--8-    E| -----------------

*= palm mute
pm= palm mute




SOLO GUITAR 1
E|-------------------------11-11-11-11--12-12-12-12------------------------14-14-14--
G|-12-12-12-12-14-14-14-14--------------------------12-12-12-12—14-14-14-14----------
B|-----------------------------------------------------------------------------------
D|-----------------------------------------------------------------------------------
A|-----------------------------------------------------------------------------------
E|-----------------------------------------------------------------------------------

E|-14-----------------------
G|----11-11-11-11-----------
B|--------------------------
D|--------------------------
A|--------------------------
E|--------------------------

SOLO GUITAR 2
E|---------------|X2--------------X2
G|-5-5-5--5-5-5--|--5--5-5---5--5-5-
B|-4-3-4--4-4-4--|--3--3-3---3--3-3-
D|---------------|--4--4-4---4--4-4-
A|---------------|------------------
E|---------------|------------------

INTRO
VERSE
PRE-CHORUS
CHORUS
VERSE
PRE-CHORUS
CHORUS
SOLO
CHORUS X2 


LYRICS

Intro
Why don’t you know? 
Why don’t you care?
You’re a selfish b**ch 
With a ***ing ton of hair



Verse 1
I see you walking down the street, every ones staring at you, but you just look away, cause you, you think your so good, you think that you’re the best, ...too bad…, you couldn’t pass your science test.

Pre-chorus

Your stupid,
You’re retarded,
You’re senseless,
Your carnie,

You’re beautiful,
Your ugly,
Your pants are too small,
And you smell like ***,

Chorus

You’re selfish,
You make me mad,
You think you know everything,
But it’s too bad,

You know nothing about this world,
You think you’re beautiful,
But you’re just selfish,
You’re just selfish

Verse 2

Right now… I don’t care, the way you look, because your mean, because your not clean, you stare at me, you think I’m looking but I’m not, I’m just drawing on my paper, different ways to kill you,

Pre-chorus
Chorus
Solo
Chorus x2
This song is dedicated to Boxer the horse !!!!!
            
Submit corrections

↑ Back to top | Tablatures and chords for acoustic guitar and electric guitar, ukulele, drums are parodies/interpretations of the original songs. You may use it for private study, scholarship, research or language learning purposes only