Home » T » The National »

The National - Mr November Tabs

Artists:  A B C D E F G H I J K L M N O P Q R S T U V W X Y Z # 

Mr November Tabs

(ver. 1) Click to play this song!
The National
[Intro]
I've seen them play G both as open and barre, play whichever one you like best
e|2-2-2-2-2-|-2-|-3-3-3-3-3-|-3----------------------------------------------|
B|3-3-3-3-3-|-3-|-3-3-3-3-3-|-3----------------------------------------------|
G|2-2-2-2-2-|-2-|-0-0-0-0-0-|-0----------------------------------------------|
D|4-4-4-4-4-|-4-|-0-0-0-0-0-|-0----------------------------------------------|
A|----------|---|-x-x-x-x-x-|-x----------------------------------------------|
E|----------|---|-3-3-3-3-3-|-3----------------------------------------------|

[Verses]
e|----2------2--|-----3------3--|-----2-------2--|-----0-------0----------------|
B|--3--3---3---3|---3---3--3---3|---3---3---3---3|---3---3---3---3--------------|
G|4------4------|-4------4------|-2-------2------|-2-------2--------------------|
D|--------------|---------------|----------------|------------------------------|
A|--------------|---------------|----------------|------------------------------|
E|--------------|---------------|----------------|------------------------------|

[Bridge]I'm the new blue blood...
e|---5-------5---|----7-------7--|-----5-------5--|-----5-------5---------------|
B|-7---7---7---7-|--8---8---8---8|---7---7---7---7|---5---5---5---5-------------|
G|7------7-------|7-------7------|-7-------7------|-7-------7-------------------|
D|---------------|---------------|----------------|-----------------------------|
A|---------------|---------------|----------------|-----------------------------|
E|---------------|---------------|----------------|-----------------------------|

[Chorus]
Each chords is played for one bar at 16th notes
    D     G     D     Dsus4
e|14-14|-15-15|-14-14|-12-12----------------------------------------------------|
B|15-15|-15-15|-15-15|-15-15----------------------------------------------------|
G|14-14|-12-12|-14-14|-14-14----------------------------------------------------|
D|-----|------|------|----------------------------------------------------------|
A|-----|------|------|----------------------------------------------------------|
E|-----|------|------|----------------------------------------------------------|

[Outro]I wish i that i believed in fate
Sometimes just strummed/picked once, sometimes strummed eighth notes 
e|12-|--10-|--7-|--7-\----------------------------------------------------------|
B|12-|--10-|--8-|--8-\----------------------------------------------------------|
G|12-|--11-|--9-|--7-\----------------------------------------------------------|
D|---|-----|----|---------------------------------------------------------------|
A|---|-----|----|---------------------------------------------------------------|
E|---|-----|----|---------------------------------------------------------------|


            
Submit corrections

↑ Back to top | Tablatures and chords for acoustic guitar and electric guitar, ukulele, drums are parodies/interpretations of the original songs. You may use it for private study, scholarship, research or language learning purposes only