Home » T » The National »

The National - Free Falling Tabs

Artists:  A B C D E F G H I J K L M N O P Q R S T U V W X Y Z # 

Free Falling Tabs

(ver. 1) Click to play this song!
The National
Free falling 
National
Composed and written by Chris santaw

INTRO
E|2--------2--------2-----0--------0--------0-------3--------3--------3-----x2
B|---3--------3--------3-----3--------3--------3-------3--------3--------3--
G|------2--------2--------------2--------2--------2-------2--------2--------
D|--------------------------------------------------------------------------
A|--------------------------------------------------------------------------
E|--------------------------------------------------------------------------
VERSE1

E|2--------2--------2-----0--------0--------0--------3-------3--------3----
B|---3--------3--------3-----3--------3--------3--------3-------3--------2-
G|------2--------2--------------2--------2--------2--------2-------2-------
D|---------------------------------------------------------------------------
A|---------------------------------------------------------------------------
E|---------------------------------------------------------------------------

E|0--------0--------0-----3--------3--------3-----2--------2--------2----
B|---3--------3--------3-----3--------3--------2-----3--------3--------3-
G|------2--------2--------------2--------2--------------2--------2-------
D|-----------------------------------------------------------------------
A|-----------------------------------------------------------------------
E|-----------------------------------------------------------------------

E|0--------0--------0-------2--------2--------2----
B|---3--------3--------3-------3--------3--------3-
G|------2--------2----------------2--------2-------
D|-------------------------------------------------
A|-------------------------------------------------
E|-------------------------------------------------

CHORUS

E|------------------------------------------------------------------------
B|------------------------------------------------------------------------
G|55555555----------------------------------------------55555555-22222222-
D|55555555-55555555-77777777-22222222-33333333-55555555-55555555-22222222-
A|33333333-55555555-77777777-22222222-33333333-55555555-33333333-00000000-
E|---------33333333-55555555-00000000-11111111-33333333-------------------



INTERLUDE
E|--------------
B|--------------
G|5-------------
D|5---5---7---2-
A|3---5---7---2-
E|----3---5---0-


LYRICS

VERSE1

One day at school
I started to drool 
Looking at you
I new I’d love you

But I was taken
Oh so mistaken
That the girl that loved me
Was going to dump me

Chorus
Cause im free falling 
Into your love
Im free falling 
Please catch me with your love
If you have none 
Then I’ll be done
You’ll break my heart 
And tear it apart

Verse2
You showed me the way
Cleared it all away
I new I had to have you
I think that you knew it too

I would stay up late
Thinking about you on and on
Wondering what to do
About the way in feel for you

Chorus

Interlude

I love you 
You knew it
I was mistaken
Thought I was taken

Chorus x2



This song is about when I first met Shelagh 
I knew I loved her but I was taken so I waited until 
The girl I was going out with dumped me then 
I went out with Shelagh.
I love you.
            
Submit corrections

↑ Back to top | Tablatures and chords for acoustic guitar and electric guitar, ukulele, drums are parodies/interpretations of the original songs. You may use it for private study, scholarship, research or language learning purposes only