Home » T » The National »

The National - Fireproof Tabs

Artists:  A B C D E F G H I J K L M N O P Q R S T U V W X Y Z # 

Fireproof Tabs

(ver. 1) Click to play this song!
The National
Structure: Intro / Verse I / Chorus I / Verse II / Chorus II / Verse III / Chorus III

Tab:
Intro (x2) / Verses I + II (x2) / Verse III (x4):

e|--------0--------0--------0--------0--------0----------------0--------0----|
B|-----1---1-----1--1-----1--1-----1--1-----1--1-------------3--3-----3--3---|
G|----2-----2---2----2---2----2---2----2---0----0---0---0---0----0---0----0--|
D|------------2--------3--------0--------3--------2---3---0--------0---------!
A|--0------------------------------------------------------------------------|
E|---------------------------------------------------------------------------|

 Lyrics for Verses:
I. You keep a lot of secrets      II. You tell me you´re waiting     III. You´re the needle in the hay
   And I keep none                    For someone                         You´re the water at the door
   Wish I could go back               Who isn´t so hopeless               You´re a million miles away
   And keep some                      There´s no one                      Doesn´t matter anymore
                                                                          Jennifer, you are not the only
                                                                          reason
                                                                          My head is boiling and my hands
                                                                          are freezing
                                                                          Jennifer you are not the only one
                                                                          To sit awake until the wild
                                                                          feelings leave you

Chorus I + II + III (x4):

e|-------0--------0--------0--------0--------0----------------0--------0-----|
B|-----1--1-----1--1-----1--1-----1--1-----1--1-------------3--3-----3--3----|
G|----2----2---2----2---2----2---2----2---2----2---2---2---0----0---0----0---|
D|--------------------0--------2--------3--------3---2---0--------0----------|
A|--0--------3---------------------------------------------------------------|
E|---------------------------------------------------------------------------|            
Submit corrections

↑ Back to top | Tablatures and chords for acoustic guitar and electric guitar, ukulele, drums are parodies/interpretations of the original songs. You may use it for private study, scholarship, research or language learning purposes only