Home » T » The National »

The National - Exile Vilify Ukulele

Artists:  A B C D E F G H I J K L M N O P Q R S T U V W X Y Z # 

Exile Vilify Ukulele

(ver. 1) Click to play this song!
The National

REAL FANS SUPPORT BANDS BY PURCHASING THEIR CD'S!!!


Tuning: Half-Step Down


. = Palm-Muted
~ = hold note
^ = vibrate
p = pull off
h = hammer on
/ = slide up
\ = slide down


Like all the other tabs, this is my own interpretation of the song. The chords 
are very accurate tho their meant to be played acustically and this 
tab was taken from the studio verions which only contains piano and bowed 
instruments. Also please check your tuning, this tab is for half-step 
down tuning!


Chords:
   {  Open Chords (Recommended)  }   {  Bar Chords (alternate)  }
    Em  G   C   Am  D/F#  F   Dm      Em  G   C   Am  D   F   Dm
E---0-------0---0---------1---1-------7---3---8---5---5---1---5-------|
B---0---3---1---1----3----1---3-------8---3---8---5---7---1---6-------|
G---0---0---0---2----2----2---2-------9---4---9---5---7---2---7-------|
D---2---0---2---2----0----3---0-------9---5---10--7---7---3---7-------|
A---2---2---3---0----0----3-----------7---5---10--7---5---3---5-------|
E---0---3-----------(2)--(1)---------(0)--3---8---5-------1-----------|

D = D/F# (just what the piano tends to add during chorus)


If any requests and questions, please mail me or comment!

--------------------------------------------------------------------------------
UPDATE 26/04/2011
Personal update: Thanks for all the great feedback. I thought I'd post
a way to combine both piano hands in a lower register. Enjoy!



Intro/Verse-Piano Interpretation (Acoustic Guitar)
    Em               G                C               Am
E-----------------------------------------------------------------------|
B-------------0-------------------------------0-------------------------|
G-----------------------2-0------------(0)--------------2-0-------------|
D----(2)----2---2------0----2-0-2------2----2---2------2----2-0-2-------|
A----2----------------x---------------3---------------0-----------------|
E---0----------------3-------(3)----------------------------------------|
 Slow strumm      make sure the e-string keeps ringing during each chords!

--------------------------------------------------------------------------------
UPDATE 22/05/2011
Addition to verse-pattern  using bar-chords, all credit to ambient203!
Also "emptinesses again" is changed into "empty answers again", thanks again to ambient203.

 v    v    v  v     v   v    v   v  v
e|--x--x--7-x--5-3-3--x--x--x--x-7-x--5-----------x--|
B|--8--x--8-x--3-3-3--5--3--5--5-5-x--5-8-8-5--8--8--|
G|--9--9--9-x--4-4-4--4--4--5--5-5-x--5-5-5-5--5--9--|
D|--9--9--9-x--x-x-x--5--5--5--5-5-x--7-7-7-7--7--9--|
A|--7--7--7----5---5--5--5--3---------7-7-7-7--7--7--|
E|-------------3------3---------------5---5----------|




Em    G     C     Am   (piano riff on the bottom)
Em    G     C     Am


 Em    G     C     Am            Em      G     C     Am
Exile.             It takes your   mind...    again. 
 Em    G     C     Am            Em      G     C     Am
Exile.             It takes your   mind...     again. 


        Em  C      G     D/F#
You got su--cker's luck
         Em  C   G    D/F#
Have you gi--ven up? 


        Am          F       C       G
Does it feel like a trial? 
        Am           F             C           G        G
Does it trouble your mind the way, you trouble mine. 


Em    G     C     Am
Em    G     C     Am


 Em    G     C     Am            Em      G     C     Am
Exile.             It takes your   mind...    again. 
 Em    G     C     Am            Em      G     C     Am
Exile.             It takes your   mind...     again. 


        Em    C  G     D/F#
Oh, you meant so much
         Em  C   G     D/F# 
Have you gi--ven up? 


        Am          F       C       G
Does it feel like a trial? 
        Am           F             C           G        G
Does it trouble your mind the way, you trouble mine. 
        Am          F       C       G
Does it feel like a trial? 
            Am           F                 C          G        G  
Now, you're thinkin' too fast you're like, marbles on glass. 


Dm    Am     C     Em         Dm      Am        C       G   
        Vilify.                       Don't even  try. 
Dm    Am     C     Em         Dm      Am        C       G   G
        Vilify.                       Don't even  try. 


Em    G     C     Am
Em    G     C     Am


        Em  C      G     D/F#
You got su--cker's luck
         Em  C   G    D/F#
Have you gi--ven up? 


        Am          F       C       G
Does it feel like a trial? 
        Am           F             C           G      
Does it trouble your mind the way, you trouble mine. 
        Am          F       C       G
Does it feel like a trial? 
        Am               F         C       G     G
Did you fall far for the same emptinesses again? 


Dm    Am     C     Em         Dm      Am        C       G   
        Vilify.                       Don't even  try. 
Dm    Am     C     Em         Dm      Am        C       G   G
        Vilify.                       Don't even  try. 

Dm    Am     C     Em         Dm      Am        C       G   
        Vilify.                       Don't even  try. 
Dm    Am     C     Em         Dm      Am        C       G   G   G   G
        Vilify.                       Don't even  try. 
Em


Piano Riff for Intro/Verse:
E------------7--------------------|
B----------------10-8-------------|
G---9------9---9------9-7-9-------|
D---------------------------------|
A---------------------------------|
E---------------------------------|



And that's it! Please rate, comment and correct me!  

Cheers...
            
Submit corrections

↑ Back to top | Tablatures and chords for acoustic guitar and electric guitar, ukulele, drums are parodies/interpretations of the original songs. You may use it for private study, scholarship, research or language learning purposes only