Home » T » The National »

The National - Day I Die Tabs

Artists:  A B C D E F G H I J K L M N O P Q R S T U V W X Y Z # 

Day I Die Tabs

(ver. 1) Click to play this song!
The National
[Intro]
Guitar I
e|------------|-------------|------------|------------| (x2)
B|-7+---------|--7+---------|-7+---------|-7+---------|
G|-----7+-----|------7+-----|-----7+---6-|-----7+---6-|
D|---------7+-|----------7+-|------------|------------|
A|------------|-------------|------------|------------|
E|------------|-------------|------------|------------|

Guitar II
e|------------|-------------|------------|------------| (x2)
B|-7+---------|--7+---------|-7+---------|-7----------|
G|-----7+--7--|------7+--7--|-----7+---6-|-----7----6-|
D|------------|-------------|------------|------------|
A|------------|-------------|------------|------------|
E|------------|-------------|------------|------------|

[Verse 1]
e|--2---2---2--|-x---x---x--|-2---2---2--|-x---x---x--|-2---2---2--|-x---x---x--|-3---3---3--|-x---x---x--|
B|--3---3---3--|-2---2---2--|-3---3---3--|-2---2---2--|-3---3---3--|-2---2---2--|-3---3---3--|-2---2---2--|
G|--2---2---2--|-2---2---2--|-2---2---2--|-2---2---2--|-2---2---2--|-2---2---2--|-3---3---3--|-2---2---2--|
D|--0---0---0--|-2---2---2--|-0---0---0--|-2---2---2--|-0---0---0--|-2---2---2--|-4---4---4--|-2---2---2--|
A|-------------|------------|------------|------------|------------|------------|------------|------------|
E|-------------|------------|------------|------------|------------|------------|------------|------------|

[Chorus 1]
e|-2-2--2--2-2--2-|-x-x--x--x-x--x-|-x-x--x--x-x--x-|-3-3--3--3-3--3-|
B|-3-3--3--3-3--3-|-2-2--2--2-2--2-|-x-x--x--x-x--x-|-0-0--0--0-0--0-|
G|-2-2--2--2-2--2-|-2-2--2--2-2--2-|-0-0--0--0-0--0-|-0-0--0--0-0--0-|
D|-0-0--0--0-0--0-|-2-2--2--2-2--2-|-2-2--2--2-2--2-|-0-0--0--0-0--0-|
A|----------------|----------------|-2-2--2--2-2--2-|-2-2--2--2-2--2-|
E|----------------|----------------|-x-x--x--x-x--x-|-3-3--3--3-3--3-|

e|-2-2--2--2-2--2-|-x-x--x--x-x--x-|-x-x--x--x-x--x-|-x-x--x--x-x--x-|
B|-3-3--3--3-3--3-|-2-2--2--2-2--2-|-x-x--x--x-x--x-|-2-2--2--2-2--2-|
G|-2-2--2--2-2--2-|-2-2--2--2-2--2-|-0-0--0--0-0--0-|-x-x--x--x-x--x-|
D|-0-0--0--0-0--0-|-2-2--2--2-2--2-|-2-2--2--2-2--2-|-x-x--x--x-x--x-|
A|----------------|----------------|-2-2--2--2-2--2-|-5-5--5--5-5--5-|
E|----------------|----------------|-x-x--x--x-x--x-|-x-x--x--x-x--x-|

Guitar I
e|------------|-------------|------------|------------| (x2)
B|-7+---------|--7+---------|-7+---------|-7+---------|
G|-----7+-----|------7+-----|-----7+---6-|-----7+---6-|
D|---------7+-|----------7+-|------------|------------|
A|------------|-------------|------------|------------|
E|------------|-------------|------------|------------|

Guitar II
e|------------|-------------|------------|------------| (x2)
B|-7+---------|--7+---------|-7+---------|-7----------|
G|-----7+--7--|------7+--7--|-----7+---6-|-----7----6-|
D|------------|-------------|------------|------------|
A|------------|-------------|------------|------------|
E|------------|-------------|------------|------------|

[Verse 2]
e|--2---2---2--|-x---x---x--|-2---2---2--|-x---x---x--|-2---2---2--|-x---x---x--|-3---3---3--|-x---x---x--|
B|--3---3---3--|-2---2---2--|-3---3---3--|-2---2---2--|-3---3---3--|-2---2---2--|-3---3---3--|-2---2---2--|
G|--2---2---2--|-2---2---2--|-2---2---2--|-2---2---2--|-2---2---2--|-2---2---2--|-3---3---3--|-2---2---2--|
D|--0---0---0--|-2---2---2--|-0---0---0--|-2---2---2--|-0---0---0--|-2---2---2--|-4---4---4--|-2---2---2--|
A|-------------|------------|------------|------------|------------|------------|------------|------------|
E|-------------|------------|------------|------------|------------|------------|------------|------------|

[Chorus 2]
e|-2-2--2--2-2--2-|-x-x--x--x-x--x-|-x-x--x--x-x--x-|-3-3--3--3-3--3-| (x4)
B|-3-3--3--3-3--3-|-2-2--2--2-2--2-|-x-x--x--x-x--x-|-0-0--0--0-0--0-|
G|-2-2--2--2-2--2-|-2-2--2--2-2--2-|-0-0--0--0-0--0-|-0-0--0--0-0--0-|
D|-0-0--0--0-0--0-|-2-2--2--2-2--2-|-2-2--2--2-2--2-|-0-0--0--0-0--0-|
A|----------------|----------------|-2-2--2--2-2--2-|-2-2--2--2-2--2-|
E|----------------|----------------|-x-x--x--x-x--x-|-3-3--3--3-3--3-|

[Verse 3]
e|--2---2---2--|-x---x---x--|-2---2---2--|-x---x---x--|-2---2---2--|-x---x---x--|-3---3---3--|-x---x---x--|
B|--3---3---3--|-2---2---2--|-3---3---3--|-2---2---2--|-3---3---3--|-2---2---2--|-3---3---3--|-2---2---2--|
G|--2---2---2--|-2---2---2--|-2---2---2--|-2---2---2--|-2---2---2--|-2---2---2--|-3---3---3--|-2---2---2--|
D|--0---0---0--|-2---2---2--|-0---0---0--|-2---2---2--|-0---0---0--|-2---2---2--|-4---4---4--|-2---2---2--|
A|-------------|------------|------------|------------|------------|------------|------------|------------|
E|-------------|------------|------------|------------|------------|------------|------------|------------|

[Bridge]
Guitar I
e|-2-2--2-2--0-0--0-0-|-3-3--3-3--0-0--0-0-|-2-2--2-2--0-0--0-0-|-3-3--3-3--0-0--0-0-|  
B|-3-3--3-3--3-3--3-3-|-3-3--3-3--2-2--2-2-|-3-3--3-3--3-3--3-3-|-3-3--3-3--2-2--2-2-|  
G|-4-4--4-4--4-4--4-4-|-3-3--3-3--2-2--2-2-|-4-4--4-4--4-4--4-4-|-3-3--3-3--2-2--2-2-|   
D|-4-4--4-4--4-4--4-4-|-4-4--4-4--2-2--2-2-|-4-4--4-4--4-4--4-4-|-4-4--4-4--2-2--2-2-|  
A|--------------------|--------------------|--------------------|--------------------|                  
E|--------------------|--------------------|--------------------|--------------------|                
                 
Guitar II                                                          
e|-----------------------------------------------------------------------------------|
B|-----------------------------------------------------------------------------------|
G|-------------------------------------------14-------------------------14-----------|
D|-------------------------------------14h16----16----------------14h16----16---(14)-|
A|-----------------------------------------------------------------------------------|
E|-----------------------------------------------------------------------------------|

Guitar I
e|-2-2--2-2--0-0--0-0-|-3-3--3-3--0-0--0-0-| (x6)
B|-3-3--3-3--3-3--3-3-|-3-3--3-3--2-2--2-2-|
G|-4-4--4-4--4-4--4-4-|-3-3--3-3--2-2--2-2-| 
D|-4-4--4-4--4-4--4-4-|-4-4--4-4--2-2--2-2-|
A|--------------------|--------------------|                 
E|--------------------|--------------------|

Guitar II
e|-----------------------------------------| (x6)
B|-----------------------------------------|
G|-------14-------------------14-----------|
D|-14h16----16----------14h16----16---(14)-|
A|-----------------------------------------|
E|-----------------------------------------|

Guitar I
e|------------|-------------|------------|------------| (x2)
B|-7+---------|--7+---------|-7+---------|-7+---------|
G|-----7+-----|------7+-----|-----7+---6-|-----7+---6-|
D|---------7+-|----------7+-|------------|------------|
A|------------|-------------|------------|------------|
E|------------|-------------|------------|------------|

Guitar II
e|------------|-------------|------------|------------| (x2)
B|-7+---------|--7+---------|-7+---------|-7----------|
G|-----7+--7--|------7+--7--|-----7+---6-|-----7----6-|
D|------------|-------------|------------|------------|
A|------------|-------------|------------|------------|
E|------------|-------------|------------|------------|

[Chorus 3]
e|-2-2--2--2-2--2-|-x-x--x--x-x--x-|-x-x--x--x-x--x-|-3-3--3--3-3--3-| (x4)
B|-3-3--3--3-3--3-|-2-2--2--2-2--2-|-x-x--x--x-x--x-|-0-0--0--0-0--0-|
G|-2-2--2--2-2--2-|-2-2--2--2-2--2-|-0-0--0--0-0--0-|-0-0--0--0-0--0-|
D|-0-0--0--0-0--0-|-2-2--2--2-2--2-|-2-2--2--2-2--2-|-0-0--0--0-0--0-|
A|----------------|----------------|-2-2--2--2-2--2-|-2-2--2--2-2--2-|
E|----------------|----------------|-x-x--x--x-x--x-|-3-3--3--3-3--3-|

[Outro]
Guitar I
e|------------|-------------|------------|------------| (x2)
B|-7+---------|--7+---------|-7+---------|-7+---------|
G|-----7+-----|------7+-----|-----7+---6-|-----7+---6-|
D|---------7+-|----------7+-|------------|------------|
A|------------|-------------|------------|------------|
E|------------|-------------|------------|------------|

Guitar II
e|------------|-------------|------------|------------| (x2)
B|-7+---------|--7+---------|-7+---------|-7----------|
G|-----7+--7--|------7+--7--|-----7+---6-|-----7----6-|
D|------------|-------------|------------|------------|
A|------------|-------------|------------|------------|
E|------------|-------------|------------|------------|

Guitar I
e|------------|-------------|------------|------------| (x2)
B|-7+---------|--7+---------|-7+---------|-7+---------|
G|-----7+-----|------7+-----|-----7+---6-|-----7+---6-|
D|---------7+-|----------7+-|------------|------------|
A|------------|-------------|------------|------------|
E|------------|-------------|------------|------------|

Guitar II
e|-17---------|-17----------|------------|-------------| (x2)
B|---------15-|----------15-|-17---------|-17----------|
G|------------|-------------|---------14-|----------14-|
D|------------|-------------|------------|-------------|
A|------------|-------------|------------|-------------|
E|------------|-------------|------------|-------------|            
Submit corrections

↑ Back to top | Tablatures and chords for acoustic guitar and electric guitar, ukulele, drums are parodies/interpretations of the original songs. You may use it for private study, scholarship, research or language learning purposes only