Home » T » The National »

The National - Break Up Tabs

Artists:  A B C D E F G H I J K L M N O P Q R S T U V W X Y Z # 

Break Up Tabs

(ver. 1) Click to play this song!
The National
Break up
National
Composed and written by Christopher santaw

Intro 
E|-------------------------------------------------x2
B|-------------------------------------------------
G|-------------------------------------------------
D|---6-4---6-4-------------------------------------
A|-4-----4-------6-4---6-4---4-2---4-2---6-4---6-4-
E|-------------4-----4-----2-----2-----4-----4-----

Verse
E|---------------------------------------------------------------------------
B|---------------------------------------------------------------------------
G|---------------------------------------------------------------------------
D|---------------------------------------------------------------------------
A|-66666666-88888888-44444444-88888888-33333333-66666666-44444444-88888888---
E|-44444444-66666666-22222222-66666666-11111111-44444444-22222222-66666666-4~
|------------------------------pm-----------------------------------------|

E|-------------------------------------------------------------------------------
B|-------------------------------------------------------------------------------
G|-------------------------------------------------------------------------------
D|-------------------------------------------------------------------------------
A|-66666666-88888888-44444444-88888888-33333333-66666666-44444444-88888888-6-6-6-
E|-44444444-66666666-22222222-66666666-11111111-44444444-22222222-66666666-4-4-4-
    |--------------------------pm-----------------------------------------|

Chorus
E|-------------------------------------------------
B|-------------------------------------------------
G|-------7-----------------------7-----------------
D|-5-----7x16-9-----10-----5-----7-x16-9-----7-----
A|-5-x16-5----9-x16-10-x16-5-x16-5-----9-x16-7-x16-
E|-3----------7------8-----3-----------7-----5-----

Solo
E|---------------------------------x2
B|---------------------------------
G|---------------------------------
D|---6-4-----6-4-----6-4-3---6-4---
A|-4-------4-------4-------4-----3-
E|-------6-------4-----------------


Lyrics
(The brackets are for when you say the last words after the dots the background singers say them when you say what is after the dots)

Verse 1
I was thrown out … by you (oooo-oooo)
I was tossed out … straight through (oooo-oooo)
You broke my heart 
You tore it a part 
Now im back for more

My heart was crushed … by you (oooo-oooo)
I was a sucker…. To you (oooo-oooo)
You hurt me a lot 
So ***ing much
Now im back for more

Chorus
Im not gonna take it no more
Im going straight out the door
You won’t see me again
Not even if you can

You hurt me so much
It would if I didn’t 
Go out with you no more
It’s not worth doing

Verse 2
Im gonna end it all … for you (oooo-oooo)
Im gonna take it all … for you (oooo-oooo)
I took my own 
Life for you
Whoop de do (oooo-oooo)

You caused me more pain … then pleasure (oooo-oooo)
You made it a game … I lost (oooo-oooo)
This game I played 
Was played by you
And something wasn’t right

Chorus
Solo
chorus
            
Submit corrections

↑ Back to top | Tablatures and chords for acoustic guitar and electric guitar, ukulele, drums are parodies/interpretations of the original songs. You may use it for private study, scholarship, research or language learning purposes only