Home » T » The Naked And Famous »

The Naked And Famous - Punching In A Dream Bass

Artists:  A B C D E F G H I J K L M N O P Q R S T U V W X Y Z # 

Punching In A Dream Bass

(ver. 1) Click to play this song!
The Naked And Famous
 Rating:
3.8/5 (5 votes)
                Song : Punching In A Dream
Artist : The Naked And Famous

I saw this tab by Quentin Leloup and learned from it but as I was playing with the song, 
it had missing parts and was played at the wrong tuning. Awesome job tho but wrong 
tuning. very close though.

Tuning: Drop C#

retabbed by xXtake2Xx [Andrew Green]

Main Riff :

F#|-------------------------------------------------------------------------|
C#|---------------0h5---------------0h5---------------0h5---------------0h5-|
G#|-------------------3-3-3-3-3-3-3-----------------------------------------|
C#|-2-2-2-2-2-2-2-----------------------5-5-5-5-5-5-5-----5-5-5-5-5-5-5-----|

F#|-------------------------------------------------------------------------|
C#|---------------0h5---------------0h5---------------0h5---------------0h5-|
G#|-------------------3-3-3-3-3-3-3-----------------------------------------|
C#|-2-2-2-2-2-2-2-----------------------5-5-5-5-5-5-5-----0-0-0-0-0-0-0-----|

Bridge [2:30-3:04]
F#|-------------------------------------------------------------------------|
C#|-------------------------------------------------------------------------|
G#|-------------------------------------------------------------------------|
C#|-5-5-5-5-5-5-5-----5-5-5-5-5-5-5-----2-2-2-2-2-2-2-----0-0-0-0-0-0-0-----| [x2]

F#|-------------------------------------------------------------------------|
C#|---------------0h5---------------0h5---------------0h5---------------0h5-|
G#|-------------------------------------------------------------------------|
C#|-5-5-5-5-5-5-5-----5-5-5-5-5-5-5-----2-2-2-2-2-2-2-----0-0-0-0-0-0-0-----| [x2]

Then back to the original Main Riff until the Outro

Outro [3:34-3:58]
F#|----------------------------------------------|
C#|----------------------------------------------|
G#|---------------------------------5/15-15--10~-|
C#|-5-5-5----5-5-5----5-5-5----5-5---------------|

END



| /  slide up
| \  slide down
| h  hammer-on
| p  pull-off
| ~  vibrato
| +  harmonic
| x  Mute note
===============================================================================
            
Submit corrections

↑ Back to top | Tablatures and chords for acoustic guitar and electric guitar, ukulele, drums are parodies/interpretations of the original songs. You may use it for private study, scholarship, research or language learning purposes only