» » »

The Movielife - Up To Me Tabs

Artists:  A B C D E F G H I J K L M N O P Q R S T U V W X Y Z # 

Up To Me Tabs

(ver. 1) Click to play this song!
The Movielife
 Rating:
4/5 (4 votes)

 Up To Me lessons Tabs too difficult? Try these video lessons and learn fast
 
                THE MOVIELIFE
HAS A GAMBLING PROBLEM
UP TO ME

NORMAL TUNING

INTRO

GUITAR 1 [X2]
|-----------------------------------------------------------------------|
|-----------------------------------------------------------------------|
|-----------------------------------------------------------------------|
|--8-8-8-8---------------------------8-8-8-8---------5-5-5-5---------8--|
|--6-6-6-6-6-6-6-6-6-6-6-6-6-6-6-8-8-6-6-6-6-6-6-6-6-3-3-3-3-8-8-8-8-6--|
|----------4-4-4-4-3-3-3-3-4-4-4-6-6---------4-4-4-4---------6-6-6-6----|

GUITAR 2
|--0-0-0h3p0-0h6p0-0h8p0-0h6p0-0-0-0h3p0-0h6p0-0h1-0h1--|
|-------------------------------------------------------|
|-------------------------------------------------------|
|-------------------------------------------------------|
|-------------------------------------------------------|
|-------------------------------------------------------|x2

VERSE/PRE-CHORUS

GUITAR 1
|-------------------|----------|----------------------------------------|
|-------------------|----------|----------------------------------------|
|-------------------|----------|----------------------------------------|
|----------8--------|----------|----------------------------------------|
|--6-6-8-8-6--------|--6-6-8-8-|--6-6-6-6-6-6-6-6-8-8-8-8-8-8-8-8-------|
|--4-4-6-6----[x3]--|--4-4-6-6-|--4-4-4-4-4-4-4-4-6-6-6-6-6-6-6-6-[x4]--|

GUITAR 2 - theres some lead bits on the pre-chorus but they're to hard
to hear.

CHORUS ".......i guess its up to me....."

GUITAR 1 [mute b/w chord changes]
|--------------------------------------|
|--------------------------------------|
|--------------------------------------|
|--8-8-8-8-----------------------------|
|--6-6-6-6--5-5-5-5--6-6-6-6--3-3-3-3--|
|-----------3-3-3-3--4-4-4-4--1-1-1-1--|x4

GUITAR 2 - plays a variation of the lead bit from the intro.

-- **THEN BOTH GUITARS PALM MUTE ABOVE RIFF x2** --

-- **THEN PLAY INTRO RIFF W/O LEAD GUITAR x1** --

-- **THEN PLAY VERSE/PRE-CHORUS RIFF AGAIN** --

-- **THEN PLAY CHORUS RIFF AGAIN** --

-- **THEN PLAY THE INTRO RIFF(but add some pm)ONE MORE TIME** --
            
Submit corrections


        Up To Me lessons Hard to play? Try these video lessons and learn fast Up To Me lessons
        
↑ Back to top | Tablatures and chords for acoustic guitar and electric guitar, ukulele, drums are parodies/interpretations of the original songs. You may use it for private study, scholarship, research or language learning purposes only