» » »

The Movielife - Question Tabs

Artists:  A B C D E F G H I J K L M N O P Q R S T U V W X Y Z # 

Question Tabs

(ver. 1) Click to play this song!
The Movielife
 Rating:
4/5 (4 votes)

 Question lessons Tabs too difficult? Try these video lessons and learn fast
 
                This is the b-side of the 'Jamestown' 7" single, it's a cover by the Old 97's and the movielife do it better!

Standard Tuning:
listen for timing, and times chords are played, cos im lazy and didnt include them.0

1st time the chords are played without vocals
e|-------------------------------
b|--1-1-1------------------------
g|--0-0-2------------------------
d|--2-2-2----------3-3-7---------
a|--3-2-0----------3-3-5---------
E|---------3-3-5-3-1-0-0-3-3-5-7-

then, for all verses:

e|-------------------------------
b|--1-1-1------------------------
g|--0-0-2------------------------
d|--2-2-2--5-3-3-7--------------
a|--3-2-0--5-3-3-5--------------
E|---------3-1-0-0-3-3-5-7------

Chorus:

e|-------------------------------
b|-------------------------------
g|------5------------------------
d|--3-5-5-7----------------------
a|--3-5-3-7----------------------
E|--1-3---5----------------------

thanks for reading this, it's a rad song. love from me
            
Submit corrections


        Question lessons Hard to play? Try these video lessons and learn fast Question lessons
        
↑ Back to top | Tablatures and chords for acoustic guitar and electric guitar, ukulele, drums are parodies/interpretations of the original songs. You may use it for private study, scholarship, research or language learning purposes only