» » »

The Movielife - I Hope You Die Soon Tabs

Artists:  A B C D E F G H I J K L M N O P Q R S T U V W X Y Z # 

I Hope You Die Soon Tabs

(ver. 1) Click to play this song!
The Movielife
 Rating:
4/5 (4 votes)

 I Hope You Die Soon lessons Tabs too difficult? Try these video lessons and learn fast
 
                Tunning: Half A Step Down 

x=Muted(Don't Press In Bar Chord) 
*=palm mute 
/=slide 
^=bend string 
h=hammer on 
p=pull off 
~=let it ring 
\=pickslide 


Intro/Verse:(Both Guitars)
e|-----------------------------------| 
B|-----------------------------------| 
G|--1010101010110101011010-----------| 
D|--x-x-x-x-x-x-x-x-x-x-x---8-8-8-8--| 
A|--8-8-8-8-8-8-8-8-8-8-8---8-8-8-8--| 
E|--------------------------6-6-6-6--| 

Outro 
e|-----------------------------------| 
B|-----------------------------------| 
G|--5--7--8--------------------------| 
D|--x--x--x--8-8-8-8-8---------------| 
A|--3--5--6--8-8-8-8-8---------------| 
E|-----------6-6-6-6-6---------------|
            
Submit corrections


        I Hope You Die Soon lessons Hard to play? Try these video lessons and learn fast I Hope You Die Soon lessons
        
↑ Back to top | Tablatures and chords for acoustic guitar and electric guitar, ukulele, drums are parodies/interpretations of the original songs. You may use it for private study, scholarship, research or language learning purposes only