» » »

The Movielife - If Only Duct Tape Could Fix Everything Tabs

Artists:  A B C D E F G H I J K L M N O P Q R S T U V W X Y Z # 

If Only Duct Tape Could Fix Everything Tabs

(ver. 1) Click to play this song!
The Movielife
 Rating:
4/5 (4 votes)

 If Only Duct Tape Could Fix Everything lessons Tabs too difficult? Try these video lessons and learn fast
 
                THE MOVIELIFE	
HAS A GAMBLING PROBLEM
IF ONLY DUCT TAPE COULD FIX EVERYTHING

NORMAL TUNING

INTRO

Guitar 1
|--------------------------------------------
|----------------------------7---------------
|--4h6-8--4/6-8--4h6-8-8-6-4---4--4h6-8------
|--------------------------------------------
|--------------------------------------------
|--------------------------------------------

----------------7/9-7~---7-9-7/5h7-----------------------------------|
--4/6-8-4h6-8-6--------------------6~--6b8-8-8-6-4--8---6---4--------|
----------------------------------------------------X---X---X--------|
----------------------------------------------------6---4---2-224/6--|
--------------------------------------------------------------002/4--|
                                                            pm.....
Guitar 2
|-----------------------------------------------|-------------------------|
|-----------------------------------------------|-------------------------|
|-----------------------------------------------|---------------------4~--|
|--4-4-4-4-4------------------------------------|---------------------X---|
|--2-2-2-2-2-6-6-6-6-6-4-4-4-4-4-2-2-2-2-2------|--6---4---2---224/6--2~--|
|------------4-4-4-4-4-2-2-2-2-2-0-0-0-0-0--x3--|--4---2---0---002/4------|
                                                             pm.....
VERSE

Guitar 1
|------|------------------------------------------------------|-----------------|
|------|------------------------------------------------------|-----------------|
|--8---|------------------------------------------------------|-----------------|
|------|--------4444444---------------------------------------|-----------------|
|------|--224/6-2222222-6666666-4444444-2222222--6---4---2----|--6---4---2------|
|------|--002/4---------4444444-2222222-0000000--4---2---0-x2-|--4---2---0--x2--|
       pm......................................

Guitar 2 - SAME AS GUITAR 1

CHORUS "you know i'd do anything for you...."

Guitar 1
|-----------------------------------------------|-----------------------------|
|-----------------------------------------------|-----------------------------|
|-----------------------------------------------|--6~--6b8-8-8--6--4-8--6--4--|
|--4-4-4-4-4------------------------------------|--------------------X--X--X--|
|--2-2-2-2-2-6-6-6-6-6-4-4-4-4-4-2-2-2-2-2------|--------------------6--4--2--|
|------------4-4-4-4-4-2-2-2-2-2-0-0-0-0-0--x2--|-----------------------------|



Guitar 2 
|----------------------------------------------|------------------------------------
|----------------------------------------------|------------------------------------
|----------------------------------------------|------------------------------------
|-4-4-4-4-4------------------------------------|--4-X-X-X---------------------------
|-2-2-2-2-2-6-6-6-6-6-4-4-4-4-4-2-2-2-2-2------|--2-X-X-X-4-4-4-6-6-6-6-6-2-2-2-2-2-
|-----------4-4-4-4-4-2-2-2-2-2-0-0-0-0-0--x2--|----X-X-X-2-2-2-4-4-4-4-4-0-0-0-0-0-

------------|-----|
------------|-----|
------------|--4--|
------------|--X--|
--6---4---2-|--2--|
--4---2---0-|-----|

VERSE 2

Guitar 1
|------------------------|-----------------------|-----------------|
|------------------------|-----------------------|-----------------|
|----4----4----4---------|-----------------------|-----------------|
|------------------------|--4X4X-----------------|-----------------|
|--2---------------------|--2X2X-6X6X-4X4X-2X22--|--6---4---2------|
|------4----2----0~--x2--|-------4X4X-2X2X-0X00--|--4---2---0--x3--|

Guitar 2 - play Ab F# E x3

CHORUS 2

Guitar 1(i can hear some notes for this first bar but there hard to hear)
|-----------------------------------------------|-----------------------------|
|-----------------------------------------------|-----------------------------|
|-----------------------------------------------|--6~--6b8-8-8--6--4-8--6--4--|
|--4-4-4-4-4------------------------------------|--------------------X--X--X--|
|--2-2-2-2-2-6-6-6-6-6-4-4-4-4-4-2-2-2-2-2------|--------------------6--4--2--|
|------------4-4-4-4-4-2-2-2-2-2-0-0-0-0-0--x2--|-----------------------------|



Guitar 2 
|----------------------------------------------|------------------------------------
|----------------------------------------------|------------------------------------
|----------------------------------------------|------------------------------------
|-4-4-4-4-4------------------------------------|--4-X-X-X---------------------------
|-2-2-2-2-2-6-6-6-6-6-4-4-4-4-4-2-2-2-2-2------|--2-X-X-X-4-4-4-6-6-6-6-6-2-2-2-2-2-
|-----------4-4-4-4-4-2-2-2-2-2-0-0-0-0-0--x2--|----X-X-X-2-2-2-4-4-4-4-4-0-0-0-0-0-

------------|-----|
------------|-----|
------------|--4--|
------------|--X--|
--6---4---2-|--2--|
--4---2---0-|-----|

BRIDGE

Guitar 1 (somethin like this)
|-------------------------------------------|
|-------------------------------------------|
|--4/6h8p6h8p6h8--4/6h8p6h8p6h8--4/6h8etc.--|
|-------------------------------------------|
|-------------------------------------------|
|-------------------------------------------|

Guitar 2
|---------------------------------------|
|---------------------------------------|
|---------------------------------------|
|---------------------------------------|
|--4-4-4-4-4-4-4-4-6-2-2-2-2-2-2-2-2-2--|
|--2-2-2-2-2-2-2-2-4-0-0-0-0-0-0-0-0-0--|x4

OUTRO

Guitar 1 - Plays intro riff (just add a pause half way thru second bar)

Guitar 2 - Plays Chorus riff.

SORRY THIS IS SUCH A BAD TAB IM VERY LAZY TODAY.
            
Submit corrections


        If Only Duct Tape Could Fix Everything lessons Hard to play? Try these video lessons and learn fast If Only Duct Tape Could Fix Everything lessons
        
↑ Back to top | Tablatures and chords for acoustic guitar and electric guitar, ukulele, drums are parodies/interpretations of the original songs. You may use it for private study, scholarship, research or language learning purposes only