» » »

The Movielife - 94 West Tabs

Artists:  A B C D E F G H I J K L M N O P Q R S T U V W X Y Z # 

94 West Tabs

(ver. 1) Click to play this song!
The Movielife
 Rating:
4/5 (4 votes)

 94 West lessons Tabs too difficult? Try these video lessons and learn fast
 
                D-tuning
*=Harmonics (softly touch note and strum)

Intro
E|---------------------------------------------------|
B|---------------------------------------------------|
G|-55------------55------------55----------33333333--|
D|-55--5*5*5*5*--55--5*5*5*5*--55-5*5*5*5*-33333333--|
A|-33--3*3*3*3*--33--3*3*3*3*--33-3*3*3*3*-11111111--|
D|---------------------------------------------------|

Verse
E|------------------------------------------|
B|------------------------------------------|
G|-55------------55-----------1010-88-7777--|
D|-55--5*5*5*5*--55-5*5*5*5*--x-x--xx-xxxx--|
A|-33--3*3*3*3*--33-3*3*3*3*--8-8--66-5555--|
D|------------------------------------------|

Chorus (Play this part softly then when you get to the next part play hard)
E|-------------------------------------------|
B|-------------------------------------------|
G|-5-5h6-5-----3-3h5-3-----------------------|
D|-5-5h6-5-----3-3h5-3-----6-6h7-7--5555555--|
A|-3-3h4-3-----1-1h3-1-----6-6h7-7--5555555--|
D|-------------------------6-6h7-7--5555555--|

E|-------------------------------------------------------------------|
B|-------------------------------------------------------------------|
G|-5-5-55-5h6-5-5-55--3-3-33-3h5-3-3-33------------------------------|
D|-5-5-55-5h6-5-5-55--3-3-33-3h5-3-3-33--6-6-66-6h7-6-6-66--5555555--|
A|-3-3-33-3h4-3-3-33--1-1-11-1h3-1-1-11--6-6-66-6h7-6-6-66--5555555--|
D|---------------------------------------6-6-66-6h7-6-6-66--5555555--|

Interlude
E|-3------1-1-1-1-|
B|-4------1-1-1-1-|
G|-5-x14--3-3-3-3-|
D|-5------3-3-3-3-|
A|-3------1-1-1-1-|
D|----------------|

E|-----3-------------------------|
B|-------4-----------------------|
G|---5---------------------------|
D|-5--------(Reapet this a lot)--|
A|-------------------------------|
D|-------------------------------|
Thanks for looking and send corrections if needed
            
Submit corrections


        94 West lessons Hard to play? Try these video lessons and learn fast 94 West lessons
        
↑ Back to top | Tablatures and chords for acoustic guitar and electric guitar, ukulele, drums are parodies/interpretations of the original songs. You may use it for private study, scholarship, research or language learning purposes only