» » »

The Mongols - Irish Spring Tabs

Artists:  A B C D E F G H I J K L M N O P Q R S T U V W X Y Z # 

Irish Spring Tabs

(ver. 1) Click to play this song!
The Mongols
 Rating:
4/5 (4 votes)

 Irish Spring lessons Tabs too difficult? Try these video lessons and learn fast
 
                album:buddha's pest


tuning:standard
legend:

        ~ - let it ring
      / \ - slide
        x - dead string


intro:

    guitar 1:

e|-----------------------------|
B|-----------------------------|
G|-----------------------------|
D|--555555--444444444444-------|
A|--555555--444444444444-------|
E|--333333--222222222222-------|

    guitar 2:

e|----------------------0~--|
B|----------------------0~--|
G|----------------------1~--|
D|--555555--4444444444--2~--|
A|--555555--4444444444--2~--|
E|--333333--2222224444--0~--|


verse:

    both guitars

e|----------------------|
B|----------------------|
G|----------------------|
D|--444444--666666------| (2x)
A|--444444--666666------|
E|--222222--444444------|


after verse 1:

   guitar 1:

e|----------------------|
B|----------------------|
G|----------------------|
D|--444444--666666------|
A|--444444--666666------|
E|--222222--444444------|

   guitar 2

e|------------------------|
B|------------------------|
G|--77777\66--6x7x67676---|
D|--77777\66--6x7x67676---|
A|--55555\44--4x5x45454---|
E|------------------------|


repeat verse

repeat verse again (along comes the little monster...)

chorus:

   guitar 1:

e|----------------------------------|
B|----------------------------------|
G|----------------------------------| (2x)
D|--999999--888888--999999--888888--|
A|--999999--888888--999999--888888--|
E|--777777--666666--777777--666666--|

   guitar 2:

e|----11-7-9-7-7-5-3-6-4--------------------------------|
B|--8--------------------7---8-14-12-11-12-11-12-11-14--|
G|------------------------------------------------------|
D|------------------------------------------------------| (2x)
A|------------------------------------------------------|
E|------------------------------------------------------|

after chorus:

   guitar 1:

e|----------------------|
B|----------------------|
G|----------------------|
D|--4-4-4---------------| (4x)
A|--4-4-4---------------|
E|--2-2-2---------------|

   guitar 2:

e|------------------------------|
B|------------------------------|
G|---------7-9-9/11~--11-11-11--|
D|---------x-x-x/x-~--x--x--x---| (4x)
A|---------5-7-7/9-~--9--9--9---|
E|------------------------------|


bridge: (i'm a dragon slayer...)

   both guitars:

e|--------------------------|
B|--------------------------|
G|--------------------------|
D|--999999--888888--444444--| (8x)
A|--999999--888888--444444--|
E|--777777--666666--222222--|


verse:

   both guitars:

e|---------------------|
B|---------------------|
G|---------------------|
D|--4~--6~--8~--9~-----| (2x)
A|--4~--6~--8~--9~-----|
E|--2~--4~--6~--7~-----|


chorus:

   guitar 1:

e|----------------------------------|
B|----------------------------------|
G|----------------------------------| (4x)
D|--999999--888888--999999--888888--|
A|--999999--888888--999999--888888--|
E|--777777--666666--777777--666666--|

   guitar 2:

e|----11-7-9-7-7-5-3-6-4--------------------------------|
B|--8--------------------7---8-14-12-11-12-11-12-11-14--|
G|------------------------------------------------------|
D|------------------------------------------------------| (4x)
A|------------------------------------------------------|
E|------------------------------------------------------|


outro: (...way...)

    both guitars:

e|----------------------|       |-------------|
B|----------------------|       |-------------|
G|----------------------|       |-------------|
D|--99999--8888--4444---| (2x)  |--99999------|
A|--99999--8888--4444---|       |--99999------|
E|--77777--6666--2222---|       |--77777------|


last chord:

e|--------||
B|--------||
G|--------||
D|---8~---||
A|---8~---||
E|---6~---||

_____________________________________________________________________________

uhmmmm...this is "irish spring" by the mongols... this is quite a nice song!
:D uhmmm...i tabbed it,i think a year ago,but i only had the chance to put it
in here now! haha...you can trust this tab,hope you enjoy this! haha
ely rocks! [dr+pd++d???] haha support OPM
_____________________________________________________________________________
...i've had this burning in my guts now for so long...
MABUHAY PHILIPPINES!XD
            
Submit corrections


        Irish Spring lessons Hard to play? Try these video lessons and learn fast Irish Spring lessons
        
↑ Back to top | Tablatures and chords for acoustic guitar and electric guitar, ukulele, drums are parodies/interpretations of the original songs. You may use it for private study, scholarship, research or language learning purposes only