» » »

The Mighty Boosh - Love Games Tabs

Artists:  A B C D E F G H I J K L M N O P Q R S T U V W X Y Z # 

Love Games Tabs

(ver. 1) Click to play this song!
The Mighty Boosh
 Rating:
4/5 (4 votes)
                Band: The Mighty Boosh

 "I'm Old Gregg!" Well anyways here is the probably long awaited, for Mighty Boosh fans,
for the amazing song "Love Games" sung by Howard and Old Gregg. So sit down and crack
a bottle of Bailey's while you rock out to this. This is the keyboard part of the song 
to guitar by ear. Enjoy! By the way it repeats over and over throughout the
except for the bass solo.

Keys
b = bend
r = release
\ = slide up neck
/ = slide down neck
h = hammer-on
p = pull-off
~ = hold note
w = whammy bar
v = vibrato

E--------------------11~~--------------------------11~~----11-----------|
B-------------10----------10----10--------------10------10----10----12~~|
G-11-----11~~----11----------11----11-------11-------------------11-----|
D-----13-------------------------------13-------------------------------|
A-----------------------------------------------------------------------|
E-----------------------------------------------------------------------|

E--------11~~--------------------------------------11~~-------11------|
B-10--------------10-------------10--12-10-----------------10---------|
G----11-------11-----11-----11~~------------11--11------11--------11--|
D------------------------13-------------------------------------------|
A---------------------------------------------------------------------|
E---------------------------------------------------------------------|

E-------------|
B-------------|
G-11------11--|
D----13-------|
A-------------|
E-------------|
            
Submit corrections

↑ Back to top | Tablatures and chords for acoustic guitar and electric guitar, ukulele, drums are parodies/interpretations of the original songs. You may use it for private study, scholarship, research or language learning purposes only