» » »

Theme Songs - Zelda Main Tabs

Artists:  A B C D E F G H I J K L M N O P Q R S T U V W X Y Z # 

Zelda Main Tabs

(ver. 1) Click to play this song!
Theme Songs
 Rating:
4/5 (4 votes)
                (Theme)
Artist- ?
Song- Zelda Theme Song
This is an awesome song, and it goes to an awesome game!  I don’t think anyone has 
 Okay here’s the song.  It’s in normal tuning.

E----------------------------------|-------------------------------|
B----------------------------------|-------------------------------|
G--10------------10---8--6--8------|--10----------10---9--7--9-----|
D-------10--10---------------------|------11--11-------------------|
A----------------------------------|-------------------------------|
E----------------------------------|-------------------------------|

E--------------------------------|--9--11--13--13--13--11--9--11--9-----------|
B--------------10h11h13--13--13--|----------------------------------13--13-13-|
G--10-----10---------------------|--------------------------------------------|
D-----10-------------------------|--------------------------------------------|
A--------------------------------|--------------------------------------------|
E--------------------------------|--------------------------------------------|

E----------9--9-9---------------------------|-------------------------------|
B--11--13---------13--11--9---11--13--13-13-|--11--9-------------13---------|
G-------------------------------------------|--------12-12-12-12------------|
D-------------------------------------------|-----------------------11--10--|
A-------------------------------------------|-------------------------------|
E-------------------------------------------|-------------------------------|

E-------------------------------|--9--11--13--13--13--11--9--11--9------------|
B-------------10h11h13--13--13--|-----------------------------------13--13-13-|
G--10-----10--------------------|---------------------------------------------|
D-----10------------------------|---------------------------------------------|
A-------------------------------|---------------------------------------------|
E-------------------------------|---------------------------------------------|

E---------9--9-9---------------------------|-------------------------------|
B--11--13--------13--11--9---11--13--13-13-|--11--9-------------13---------|
G------------------------------------------|--------12-12-12-12------------|
D------------------------------------------|-----------------------11--10--|
A------------------------------------------|-------------------------------|
E------------------------------------------|-------------------------------|

E----------------------------------|-------------------------------|
B----------------------------------|-------------------------------|
G--10------------10---8--6--8------|--10----------10---9--7--9-----|
D-------10--10---------------------|------11--11-------------------|
A----------------------------------|-------------------------------|
E----------------------------------|-------------------------------|

E--------------------------------|--9--11--13--13--13--11--9--11--9-----------|
B--------------10h11h13--13--13--|----------------------------------13--13-13-|
G--10-----10---------------------|--------------------------------------------|
D-----10-------------------------|--------------------------------------------|
A--------------------------------|--------------------------------------------|
E--------------------------------|--------------------------------------------|

E---------9--9-9---------------------------|--------------------------------13--|
B--11--13--------13--11--9---11--13--13-13-|--11--9-------------13-13-13-13-----|
G------------------------------------------|--------12-12-12-12-----------------|
D------------------------------------------|------------------------------------|
A------------------------------------------|------------------------------------|
E------------------------------------------|------------------------------------|

Well there it is!  Kinda easy.  Perty dern easy.  I tell ye whut, paw.  
I died.  Bootlegged.  Old School sty.  Props to my homes Kevin and Dusty.  
Ye paw self.

P.S. This may not look right.  This is my second tab and Mxtabs is making it look 
all crazy.  I'm leaving it like it is to see if it works right. If not, maybe I'll 
a heap and dusty is an even bigger heap)
            
Submit corrections

↑ Back to top | Tablatures and chords for acoustic guitar and electric guitar, ukulele, drums are parodies/interpretations of the original songs. You may use it for private study, scholarship, research or language learning purposes only