» » »

Theme Songs - Wizard Of Oz Bass

Artists:  A B C D E F G H I J K L M N O P Q R S T U V W X Y Z # 

Wizard Of Oz Bass

(ver. 1) Click to play this song!
Theme Songs
 Rating:
4/5 (4 votes)
    Wizard Of Oz lessons Tabs too difficult? Try these video lessons and learn fast
                G---0-1-3-0-----0---------0----------------------------
D-----------1-3---1-----3---1---0-1--------------------
A-----------------------------3-----3-----11-11-11-11--
E------------------------------------------------------

G---5-3--0-----------------------------------------
D----------3-1-------------------------------------
A--------------3-1---------------------------------
E--------------------------------------------------

G------------5-3-1-0----------7-5-3-1-0----------------------
D---1-0---------------3-1-0-------------3-1-11-11------------
A--------3--------------------------------------------1--1--1
E------------------------------------------------------------


That' all. Quite fun to play. Try it with different effects, it sounds awesome.
            
Submit corrections

↑ Back to top | Tablatures and chords for acoustic guitar and electric guitar, ukulele, drums are parodies/interpretations of the original songs. You may use it for private study, scholarship, research or language learning purposes only