» » »

Theme Songs - The Man On The Flying Trapeze Bass

Artists:  A B C D E F G H I J K L M N O P Q R S T U V W X Y Z # 

The Man On The Flying Trapeze Bass

(ver. 1) Click to play this song!
Theme Songs
 Rating:
4/5 (4 votes)
                
i tabbed this AGAIN from trumpet, so i KNOW
it is 100% correct! u need to know the tune
to the song to play it.

~ Let Ring to Fit Song


g---|-----------------------------------------------------
d---|-----------------------------------------------------
a---|-----2--3-3-3-5-----2~----------2-3-2-2--------------
e-0-|-0-5------------1-1-----1-0-3-5---------5-1-0~-0-----

g--------------------------------------------
d--------------------------------------------
a-----2--3-3-3-5-----2~----------2-3-2-------
e-0-5------------1-1-----1-0-3-5-------5~----
            
Submit corrections

↑ Back to top | Tablatures and chords for acoustic guitar and electric guitar, ukulele, drums are parodies/interpretations of the original songs. You may use it for private study, scholarship, research or language learning purposes only