» » »

Theme Songs - Spaniard National Anthem Bass

Artists:  A B C D E F G H I J K L M N O P Q R S T U V W X Y Z # 

Spaniard National Anthem Bass

(ver. 1) Click to play this song!
Theme Songs
 Rating:
4/5 (4 votes)
                Normal Tuning G,D,A,E

G------------------------------------------------
D-----------5-------------------------5--------5-
A-3--7-3------8-7-5-3-3-2------3-5-7---8-7-5-3---
E--3-----------------------3-3-------------------

G------------------------------------------------
D-5--5-----------------------------5-------5-----
A--7--8-5--8-7-5-3-7-5-------3-5-7--8-7-5-3------
E----------------------3---3---------------------

...and back to begin   
            
Submit corrections

↑ Back to top | Tablatures and chords for acoustic guitar and electric guitar, ukulele, drums are parodies/interpretations of the original songs. You may use it for private study, scholarship, research or language learning purposes only