» » »

Theme Songs - Lord Of The Rings Themes Bass

Artists:  A B C D E F G H I J K L M N O P Q R S T U V W X Y Z # 

Lord Of The Rings Themes Bass

(ver. 1) Click to play this song!
Theme Songs
 Rating:
4/5 (4 votes)
                Lord of the rings
Cool themes

You can mess around with these. Try different strings for different sounds, try out some effects etc.



Heroic (bridge of khazad dum)
|---------------------------------------------------
|------------------7-9-10--9-7—5--7-9-7---5-4-2-
|--5--5-5--------5----------------------------------
|---------8--8-8------------------------------------

Moving (The breaking of the fellowship)

|-7-9-11--14-11-9-7--11-14-16-19-18--14-11-9h11p9--
|---------------------------------------------
|---------------------------------------------
|---------------------------------------------

The treason of Isengard

|-7-9-11--14-11-9-7--11-14-16-19-18--14-11-9h11p9--
|---------------------------------------------
|---------------------------------------------
|---------------------------------------------

|------------------7-9-10--9-7—5--7-9-7---5-4-2-
|--5--5-5--------5----------------------------------
|---------8--8-8------------------------------------
|--------------------------------------------------

Concerning hobbits

|----------------5-7-9-12-9-7-5-12-14-17-16-12-9-10-9-
|-----------------------------------------------------
|-0-5-0-5-0-5-0---------------------------------------
|-----------------------------------------------------

|-7-5-3-3-5-9-11-12-11-9-7-9-11-9-7-----------------
|------------------------------------
|-------------------------------------
|--------------------------------------

Rohan (main)

|------------|-----|-------|----|-----------|------|
|----5-5-7-5-|4-0*-|----7*-|-4*-|---5-5-7-5-|-4-0*-|
|-3----------|-----|-3-----|----|-3---------|------|
|------------|-----|-------|----|-----------|------|

|----4*---|------|-------------|---------|------|
|-2-------|---5*-|-4*--3-0-3-0-|---------|---5*-|
|------*3-|-3----|-------------|-3*--3*--|-3----|
|---------|------|-------------|---------|------|
|------------|----9------
|-4--7-7-5-7-|-----------
|------------|-3*----3*--
|------------|-----------

Rohan (bass part)

|--------------------------------------------------------
|--------------------------------------------------------
|-0*--2*--0*--2*--0*--2*--3*--3*--0*--2*--3*--3*--0*--2*-
|--------------------------------------------------------

|----------|
|----------|
|-3*--3*---|
|----------|

Ok that’s just a collection of stuff for you to play with. I’m not sure about the rohan part because I don’t have the TTT soundtrack. Tell me what you think!!
            
Submit corrections

↑ Back to top | Tablatures and chords for acoustic guitar and electric guitar, ukulele, drums are parodies/interpretations of the original songs. You may use it for private study, scholarship, research or language learning purposes only