» » »

Theme Songs - Europe Anthem Bass

Artists:  A B C D E F G H I J K L M N O P Q R S T U V W X Y Z # 

Europe Anthem Bass

(ver. 1) Click to play this song!
Theme Songs
 Rating:
4/5 (4 votes)
    Europe Anthem lessons Tabs too difficult? Try these video lessons and learn fast
                icq: 305079140

this song is original called "Freude, schöner Götterfunken" and I herad it while watching "Die Hard I" (Stirb Langsam I)
it's the scene where the terrorists open the door and see the prized things.

that's my interpretation, maybe not the best, but my grandma think it sounds correct ;)

G--9--9--10--12--12--10--9--7----5--5--7--9--9-7-7-
D--------------------------------------------------
A--------------------------------------------------
E--------------------------------------------------

G--9--9--10--12--12--10--9--7----5--5--7--9--7-5-5-
D--------------------------------------------------
A--------------------------------------------------
E--------------------------------------------------

G--7---9---5--7--9-10-9-5--7--9-10-9-7--5--7--0----
D--------------------------------------------------
A--------------------------------------------------
E--------------------------------------------------

G--9----9--10--12--12--10--9--7--5--5--7--9--7--5-5*
D--------------------------------------------------
A--------------------------------------------------
E--------------------------------------------------

* let ring
            
Submit corrections

↑ Back to top | Tablatures and chords for acoustic guitar and electric guitar, ukulele, drums are parodies/interpretations of the original songs. You may use it for private study, scholarship, research or language learning purposes only