» » »

Theme Songs - 70's Batman Tabs

Artists:  A B C D E F G H I J K L M N O P Q R S T U V W X Y Z # 

70's Batman Tabs

(ver. 1) Click to play this song!
Theme Songs
 Rating:
4/5 (4 votes)
                |--------------------------------------------------------|
|--------------------------------------------------------|
|--------------------------------------------------------|
|--------------------------------------------------------|    x2
|--2--2--3--3--4--4--3--3--2--2--3--3--4--4--3--3--2--2--|
|--0--0--0--0--0--0--0--0--0--0--0--0--0--0--0--0--0--0--|


|--------------------------------------------------------|
|--------------------------------------------------------|
|--------------------------------------------------------|
|--2--2--3--3--4--4--3--3--2--2--3--3--4--4--3--3--2--2--|    x2
|--0--0--0--0--0--0--0--0--0--0--0--0--0--0--0--0--0--0--|
|--------------------------------------------------------|


It's extremely easy, good luck.
            
Submit corrections

↑ Back to top | Tablatures and chords for acoustic guitar and electric guitar, ukulele, drums are parodies/interpretations of the original songs. You may use it for private study, scholarship, research or language learning purposes only