» » »

The Mayfield Four - Flatleys Crutch Tabs

Artists:  A B C D E F G H I J K L M N O P Q R S T U V W X Y Z # 

Flatleys Crutch Tabs

(ver. 1) Click to play this song!
The Mayfield Four
 Rating:
3.7/5 (24 votes)

 Flatleys Crutch  lessons Tabs too difficult? Try these video lessons and learn fast
 
                NTRO:

Gtr 1
   Eb5
e|---------------------------------------------------------------------------|
B|---------------------------------------------------------------------------|
G|-8-8-8-8-8-8---------------------------------------------------------------|
D|-8-8-8-8-8-8---------------------------------------------------------------|
A|-6-6-6-6-6-6---------------------------------------------------------------|
E|---------------------------------------------------------------------------|

Gtr 2 
                                                                        
e|------------11-------------------------------------------------------------|
B|------------14b16----------------------------------------------------------|
G|---------------------------------------------------------------------------|
D|---------------------------------------------------------------------------|
A|---------------------------------------------------------------------------|
E|---------------------------------------------------------------------------|


VERSE 1:

Gtr 1
   Eb5
e|-------------11------------------------------------------------------------|
B|-------------14b16---------------------------------------------------------|
G|-8-8-8-8-8-8---------------------------------------------------------------|
D|-8-8-8-8-8-8---------------------------------------------------------------|
A|-6-6-6-6-6-6---------------------------------------------------------------|
E|---------------------------------------------------------------------------|

Gtr 2 (played second time round)
   Eb    Bb    Db    Ab
e|---------------------------------------------------------------------------|
B|-8-----3-----6-------------------------------------------------------------|
G|-8-----3-----6-----5-------------------------------------------------------|
D|-8-----3-----6-----6-------------------------------------------------------|
A|-6-----1-----4-----6-------------------------------------------------------|
E|-------------------4-------------------------------------------------------|

CHORUS:

Gtr 1 (you can slide into the chords from the last here)
   Eb5        Bb5        Db5        Ab5        Eb         Bb
e|---------------------------------------------------------------------------|
B|---------------------------------------------------------------------------|
G|-8-8-8-8-8--3-3-3-3-3--6-6-6-6-6-------------8-8-8-8-8--3-3-3-3-3----------|
D|-8-8-8-8-8--3-3-3-3-3--6-6-6-6-6--6-6-6-6-6--8-8-8-8-8--3-3-3-3-3----------|
A|-6-6-6-6-6--1-1-1-1-1--4-4-4-4-4--6-6-6-6-6--6-6-6-6-6--1-1-1-1-1----------|
E|----------------------------------4-4-4-4-4--------------------------------|

Gtr 2 (arpeggios)
                           Db         Ab                        
e|---------------------------------------------------------------------------|
B|------------------------------------------16-------------------------------|
G|---------------------------------------13----------------------------------|
D|----------------------------10-13---13-------------------------------------|
A|-------------------------11------------------------------------------------|
E|---------------------------------------------------------------------------|

INTERLUDE:

Gtr 1

e|-11----11------------------------------------------------------------------|
B|-14b16-14b16---------------------------------------------------------------|
G|---------------------------------------------------------------------------|
D|---------------------------------------------------------------------------|
A|---------------------------------------------------------------------------|
E|---------------------------------------------------------------------------|

Gtr 2

e|---------------------------------------------------------------------------|
B|---------------------------------------------------------------------------|
G|-8-8-8-8-8-8--12-10-8------------------------------------------------------|
D|-8-8-8-8-8-6--x--x--x------------------------------------------------------|
A|-6-6-6-6-6-6--10-8--6------------------------------------------------------|
E|---------------------------------------------------------------------------|

VERSE 2:

Gtr 1
   Eb5
e|-------------11------------------------------------------------------------|
B|-------------14b16---------------------------------------------------------|
G|-8-8-8-8-8-8---------------------------------------------------------------|
D|-8-8-8-8-8-8---------------------------------------------------------------|
A|-6-6-6-6-6-6---------------------------------------------------------------|
E|---------------------------------------------------------------------------|

Gtr 2 (played both times this verse)
   Eb    Bb    Db    Ab
e|---------------------------------------------------------------------------|
B|-8-----3-----6-------------------------------------------------------------|
G|-8-----3-----6-----5-------------------------------------------------------|
D|-8-----3-----6-----6-------------------------------------------------------|
A|-6-----1-----4-----6-------------------------------------------------------|
E|-------------------4-------------------------------------------------------|

CHORUS:

Gtr 1 (you can slide into the chords from the last here)
   Eb5        Bb5        Db5        Ab5        Eb         Bb
e|---------------------------------------------------------------------------|
B|---------------------------------------------------------------------------|
G|-8-8-8-8-8--3-3-3-3-3--6-6-6-6-6-------------8-8-8-8-8--3-3-3-3-3----------|
D|-8-8-8-8-8--3-3-3-3-3--6-6-6-6-6--6-6-6-6-6--8-8-8-8-8--3-3-3-3-3----------|
A|-6-6-6-6-6--1-1-1-1-1--4-4-4-4-4--6-6-6-6-6--6-6-6-6-6--1-1-1-1-1----------|
E|----------------------------------4-4-4-4-4--------------------------------|

Gtr 2 (arpeggios)
                           Db         Ab                        
e|---------------------------------------------------------------------------|
B|------------------------------------------16-------------------------------|
G|---------------------------------------13----------------------------------|
D|----------------------------10-13---13-------------------------------------|
A|-------------------------11------------------------------------------------|
E|---------------------------------------------------------------------------|

INTERLUDE:

Gtr 1
                                      Db Ab
e|-11----11------------------------------------------------------------------|
B|-14b16-14b16---------------------------------------------------------------|
G|------------------------------------6--------------------------------------|
D|------------------------------------6-6------------------------------------|
A|------------------------------------4-6------------------------------------|
E|--------------------------------------4------------------------------------|

Gtr 2

e|---------------------------------------------------------------------------|
B|---------------------------------------------------------------------------|
G|-8-8-8-8-8-8--12-10-8------------------------------------------------------|
D|-8-8-8-8-8-6--x--x--x------------------------------------------------------|
A|-6-6-6-6-6-6--10-8--6------------------------------------------------------|
E|---------------------------------------------------------------------------|

BRIDGE: (mostly drums and bass for quiet part then guitar is same as verse)

Gtr 1
  Eb
e|---------------------------------------------------------------------------|
B|---------------------------------------------------------------------------|
G|-8-------------------------------------------------------------------------|
D|-8-------------------------------------------------------------------------|
A|-6-------------------------------------------------------------------------|
E|---------------------------------------------------------------------------|

Gtr 2 (there is a very quiet muted upstroke during the quiet part)

e|-----------------------------x---------------------------------------------|
B|-----------------------------x---------------------------------------------|
G|-----------------------------x---------------------------------------------|
D|-----------------------------x---------------------------------------------|
A|-----------------------------x---------------------------------------------|
E|---------------------------------------------------------------------------|

Gtr 1
   Eb5
e|-------------11------------------------------------------------------------|
B|-------------14b16---------------------------------------------------------|
G|-8-8-8-8-8-8---------------------------------------------------------------|
D|-8-8-8-8-8-8---------------------------------------------------------------|
A|-6-6-6-6-6-6---------------------------------------------------------------|
E|---------------------------------------------------------------------------|

Gtr 2 (muted strings before it goes into loud part before chorus)
   Eb    Bb    Db    Ab
e|------------------------------------------------------------------x-x-x----|
B|-8-----3-----6----------------------------------------------------x-x-x----|
G|-8-----3-----6-----5----------------------------------------------x-x-x----|
D|-8-----3-----6-----6----------------------------------------------x-x-x----|
A|-6-----1-----4-----6----------------------------------------------x-x-x----|
E|-------------------4-------------------------------------------------------|

Gtr 1 (you can slide into the chords from the last here, it sounds cool)
   Eb5        Bb5        Db5        Ab5
e|---------------------------------------------------------------------------|
B|---------------------------------------------------------------------------|
G|-8-8-8-8-8--3-3-3-3-3--6-6-6-6-6-------------------------------------------|
D|-8-8-8-8-8--3-3-3-3-3--6-6-6-6-6--6-6-6-6-6--------------------------------|
A|-6-6-6-6-6--1-1-1-1-1--4-4-4-4-4--6-6-6-6-6--------------------------------|
E|----------------------------------4-4-4-4-4--------------------------------|

Gtr2
 Eb    Bb    Db    Ab
e|---------------------------------------------------------------------------|
B|-8-----3-----6-------------------------------------------------------------|
G|-8-----3-----6-----5-------------------------------------------------------|
D|-8-----3-----6-----6-------------------------------------------------------|
A|-6-----1-----4-----6-------------------------------------------------------|
E|-------------------4-------------------------------------------------------|

CHORUS:

Gtr 1 (you can slide into the chords from the last here)
   Eb5        Bb5        Db5        Ab5
e|---------------------------------------------------------------------------|
B|---------------------------------------------------------------------------|
G|-8-8-8-8-8--3-3-3-3-3--6-6-6-6-6-------------------------------------------|
D|-8-8-8-8-8--3-3-3-3-3--6-6-6-6-6--6-6-6-6-6--------------------------------|
A|-6-6-6-6-6--1-1-1-1-1--4-4-4-4-4--6-6-6-6-6--------------------------------|
E|----------------------------------4-4-4-4-4--------------------------------|

Gtr 2 (arpeggios)
                           Db         Ab                        
e|---------------------------------------------------------------------------|
B|------------------------------------------16-------------------------------|
G|---------------------------------------13----------------------------------|
D|----------------------------10-13---13-------------------------------------|
A|-------------------------11------------------------------------------------|
E|---------------------------------------------------------------------------|

OUTRO:

Gtr 1 
                                Db Ab
e|-11----11------------------------------------------------------------------|
B|-14b16-14b16---------------------------------------------------------------|
G|------------------------------------6--------------------------------------|
D|------------------------------------6-6------------------------------------|
A|------------------------------------4-6------------------------------------|
E|--------------------------------------4------------------------------------|

Gtr 2

e|---------------------------------------------------------------------------|
B|---------------------------------------------------------------------------|
G|-8-8-8-8-8-8--12-10-8------------------------------------------------------|
D|-8-8-8-8-8-6--x--x--x------------------------------------------------------|
A|-6-6-6-6-6-6--10-8--6------------------------------------------------------|
E|---------------------------------------------------------------------------|

Gtr 1 (end song on Eb)
  Db Ab Eb
e|---------------------------------------------------------------------------|
B|---------------------------------------------------------------------------|
G|-6----8--------------------------------------------------------------------|
D|-6-6--8--------------------------------------------------------------------|
A|-4-6--6--------------------------------------------------------------------|
E|---4-----------------------------------------------------------------------|

Gtr 2
        Eb
e|---------------------------------------------------------------------------|
B|---------------------------------------------------------------------------|
G|------8--------------------------------------------------------------------|
D|------8--------------------------------------------------------------------|
A|------6--------------------------------------------------------------------|
E|---------------------------------------------------------------------------|            
Submit corrections


        Flatleys Crutch  lessons Hard to play? Try these video lessons and learn fast Flatleys Crutch  lessons
        
↑ Back to top | Tablatures and chords for acoustic guitar and electric guitar, ukulele, drums are parodies/interpretations of the original songs. You may use it for private study, scholarship, research or language learning purposes only