» » »

The Mayfield Four - 12-31 Tabs

Artists:  A B C D E F G H I J K L M N O P Q R S T U V W X Y Z # 

12-31 Tabs

(ver. 1) Click to play this song!
The Mayfield Four
 Rating:
4/5 (4 votes)

 12-31 lessons Tabs too difficult? Try these video lessons and learn fast
 
                it's I who have done the tab so all credits goes to the owner... Hope you enjoy it!!! And 
the e-mail down there is not mine...

Tuning: Standard (EADGBE)

Intro/Verse
|--------------------------------------------------|
|--------------------------------------------------|
|--------------------------------------------------|
|---5---5---5---5---5---5--5---5---5---5---5---5---|
|---5---5---5---5---5---5--3---3---3---3---3---3---|
|--------------------------------------------------|

Intro Ending
|----------------------|
|----------------------|
|----------------------|
|----8---5-------------|
|----------------------|
|----------------------|

After first chorus
|-----------------------------------------------------|
|-----------------------------------------------------|
|-----------------------------------------------------|
|---9--10---10s12v----9--10---10s12v---12s15v---13v---|
|-----------------------------------------------------|
|-----------------------------------------------------|

|----------------------------------|
|----------------------------------|
|--------12-------------12---------|
|---12-------12v---10-------10v----|
|----------------------------------|
|----------------------------------|

|-----------------------------------------------------|
|-----------------------------------------------------|
|-----------------------------------------------------|
|---9--10---10s12v----9--10---10s12v---12s15v---13v---|
|-----------------------------------------------------|
|-----------------------------------------------------|

(Look out, the second time very slight...)
                      here                            here
|-----------------------------------------------------------------|
|-----------------------------------------------------------------|
|--------12-------------12--------------12--------------12--------|
|---12------12v-----12------12v-----10------10v-----10------10v---|
|-----------------------------------------------------------------|
|-----------------------------------------------------------------|

That's all for now... despite the end after "I will feel your
looo...oooove yeah" is probably G and Dm.

See ya!!

Any coment or add or sugestions, feel free to do it!
            
Submit corrections


        12-31 lessons Hard to play? Try these video lessons and learn fast 12-31 lessons
        
↑ Back to top | Tablatures and chords for acoustic guitar and electric guitar, ukulele, drums are parodies/interpretations of the original songs. You may use it for private study, scholarship, research or language learning purposes only