Home » T » The Mary Dream »

The Mary Dream - Say My Name Tabs

Artists:  A B C D E F G H I J K L M N O P Q R S T U V W X Y Z # 

Say My Name Tabs

(ver. 1) Click to play this song!
The Mary Dream
-------------------------------------------------------------------------------
                             Say My Name- The Mary Dream
-------------------------------------------------------------------------------
Tuning:Standard

Fig. 1

e|-------------------------------------------------------------------------|
B|-------------------------------------------------------------------------|
G|-------0--------0--------0-------0---------------------------------------|
D|-----------2--------2--------2-------2----0-------0-------0-------0------|
A|----------------------------------------------3------3--------3-------3--|
E|-------------------------------------------------------------------------|

Fig. 2
e|-------------------------------------------------------------------------|
B|-------------------------------------------------------------------------|
G|-------0--------0--------0-----------------------------------------------|
D|----------2---------2--------2s3--2--0-----0-------0-------0-------0-----|
A|-----------------------------------------------3-------3------3-------3--|
E|-------------------------------------------------------------------------|

Fig. 3
e|------------------------------------------------------- -----------------|
B|---------------------------------------------------- --------------------|
G|-------------------------------------------------------------------------|
D|--------2-------2--------2--------2-------0--------0-------0-------0-----|
A|-----------3-------3---------3--------3------3--------3-------3-------3--|
E|-------------------------------------------------------------------------|


Fig. 4
e|-----------------------3-------------------------------------------------|
B|----------0-----1----------1---0---1-------------------------------------|
G|--0---0--------------------------------0---------------------------------|
D|----2--------------------------------------------------------------------|
A|-------------------------------------------------------------------------|
E|-------------------------------------------------------------------------|

 Fig. 5
e|-------------------------------------------------------------------------|
B|---1---------1------1-------1---------1------1----1------1-----------0---|
G|-------0--------0------0---------0-------0-----0-----0-----0-------------|
D|-------------------------------------------------------------------------|
A|-------------------------------------------------------------------------|
E|-------------------------------------------------------------------------|

e|---------------------------------------------------------------3---------|
B|---1---------1------1-------1---------1------1----1------1---------------|
G|-------0--------0------0---------0-------0-----0-----0-----0-------------|
D|-------------------------------------------------------------------------|
A|-------------------------------------------------------------------------|
E|-------------------------------------------------------------------------|


CHORUS (electric) x4


e|-12-12-12-12h13--12-12-12-12----------|
B|-13-13-13-13-13--13-13-13-13----------|
G|-14-14-14-14-14--14-14-14-14----------|
D|--------------------------------------|
A|--------------------------------------|
E|--------------------------------------|

e|-12-12-12-12h13--10-10-10-10----------|
B|-13-13-13-13-13--11--x--x--x----------|
G|-14-14-14-14-14--11-11-11-11----------|
D|--------------------------------------|
A|--------------------------------------|
E|--------------------------------------|

INTRO
Fig. 1 x2

VERSE I
Fig 1
I’ve looked up

Fig 1
All my life

Fig 1
Waiting for you

Fig 1
To say my name

I’ll be 
Fig 2
calling you


I’ll be
Fig 2
calling you

BRIDGE
        Fig 3
And I hope you miss me too

                 Fig 3
As much as I’ve been missing you


Down here on earth
Fig 4

Down here on earth
Fig 4

VERSE II
Fig 1
I’ve looked out

Fig 1
Into space

Fig 1
Waiting for you

Fig 1
To say my name
I’ll be 
Fig 2
calling you

I’ll be
Fig 2
 calling you

BRIDGE
         Fig 3
And I hope you miss me too

                Fig 3
As much as I’ve been missing you

Down here on earth

Fig. 3
Down here on earth
Fig., 3

CHORUS (Fig. 5) x2

Asus          F
Say my name

C                       G
And pull me out to space

Asus        F
Say my name

C                   G
And this will be erased

Asus     F
Say my name

C              G
And this will be erased

BRIDGE
Fig 3
And I hope you miss me too
Fig 3

As much as I’ve been missing you

Down here on earth

Fig 4
Down here on earth
Fig 4
Down here on earth

Fig 4
Down here on earth
            
Submit corrections

↑ Back to top | Tablatures and chords for acoustic guitar and electric guitar, ukulele, drums are parodies/interpretations of the original songs. You may use it for private study, scholarship, research or language learning purposes only