Home » T » The Mary Dream »

The Mary Dream - More Tabs

Artists:  A B C D E F G H I J K L M N O P Q R S T U V W X Y Z # 

More Tabs

(ver. 1) Click to play this song!
The Mary Dream
-------------------------------------------------------------------------------
-------------------------------------------------------------------------------
Tuning:Standard

INTRO/VERSE Lead (Electric)

X2
e|------5------5------5-------5---------|
B|----5------5------5-------5-----------|
G|--6-----6------6-------6--------------|
D|--------------------------------------|
A|--------------------------------------|
E|--------------------------------------|

X2
e|------5------5------5-------5------5--|
B|----5------5------5-------5------5----|
G|--------------------------------------|
D|--7-----7------7------7------6--------|
A|--------------------------------------|
E|--------------------------------------|

interlude x2 (Electric)
x2
e|--------------------------------------|
B|----------2--0--2---------------------|
G|-------2------------------------------|
D|----2--------------4------------------|
A|--0-----------------------------------|
E|--------------------------------------|

X2
e|--------------------------------------|
B|-----------------0--------------------|
G|--------0--2--1--------------0-1------|
D|-----2--------------2------2----------|
A|--0----------------------0------------|
E|--------------------------------------|


OUTRO (Electric)
X4
e|--------------------------------------|
B|----------2--0--2---------------------|
G|-------2------------------------------|
D|----2--------------4------------------|
A|--0-----------------------------------|
E|--------------------------------------|

INTRO
Dsus  A
VERSE I
   Dsus
It pales in the light

And after all of this time

                 A
I should know better

I should know better
      Dsus
And after all the things you gave

I go in and out of faith

                      A
And I should know better

Yeah I should know better

CHORUS
A       Em            Dsus           
Do you know where you go

Or where you left your head at

A       Em                 Dsus
Do you know you left your soul at the door


A                Em                  Dsus
Or why you’re here or do you dare
to know what you are made of
A          Em           Dsus
‘Cause I know you want more than this

VERSE II
         Dsus
I’m not even gonna ask

‘Cause I know the answer’s yes

                 A
And it’s really beautiful

Yeah it’s really beautiful
         Dsus
And I wouldn’t change a thing

‘Cause I can hear the angels sing

                  A
When you’re all around me

When you’re all around me

CHORUS
A       Em            Dsus           
Do you know where you go

Or where you left your head at

A       Em                Dsus
Do you know you left your soul at the door

A              Em                    Dsus
Or why you’re here or do you dare to know what you are made of
A           Em          Dsus
‘Cause I know you want more than this

INTERLUDE
Dsus      A
Tomorrow will come
x2

CHORUS
A      Em             Dsus           
Do you know where you go

Or where you left your head at

A       Em                Dsus
Do you know you left your soul at the door

A              Em             Dsus
Or why you’re here or do you dare
to know what you are made of
A          Em          Dsus
‘Cause I know you want more than this

OUTRO

Dsus    
            
Submit corrections

↑ Back to top | Tablatures and chords for acoustic guitar and electric guitar, ukulele, drums are parodies/interpretations of the original songs. You may use it for private study, scholarship, research or language learning purposes only