» » »

The Mary Dream - Both Sides Tabs

Artists:  A B C D E F G H I J K L M N O P Q R S T U V W X Y Z # 

Both Sides Tabs

(ver. 1) Click to play this song!
The Mary Dream
 Rating:
4/5 (4 votes)

 Both Sides lessons Tabs too difficult? Try these video lessons and learn fast
 
                -------------------------------------------------------------------------------
-------------------------------------------------------------------------------
Tuning:Standard

INTRO
Fig.1 (Acoustic)
                 Am                    F   x4
e    ------------------------------|
B    ------------1-----------------|
G    ---------2--------------------|
D    ------2--------------------2--|
A    --0--------------------3------|
E    ------------------1-----------|

VERSE (Electric)
e    ----5--------------5----------|
B    -------3--------3--------6-5--|
G    --5-------5--5----------------|
D    ------------------------------|
A    ------------------------------|
E    ------------------------------|

INTERLUDE (Electric)
e    --------8--------8-------8-----8-|
B    -----8--------8-------8-----8----|
G    --10------10-------10-----10-----|
D    ---------------------------------|
A    ---------------------------------|
E    ---------------------------------|

e    --------8--------8--------8----|
B    -----8--------8--------8-------|
G    --9--------9--------9----------|
D    -------------------------------|
A    -------------------------------|
E    -------------------------------|

VERSE 1
    Am            F
Now I cannot avoid this

    Am                  F
And it’s something I’d rather miss

     Am                   F
I would cross over this hard line

     Am                     F
That keeps me on the wrong side all the time

CHORUS
             F                    Am
I’m seeing it all from both sides now

           F                      Am
I’m living it all from both sides now
         F            Am
And I tried so hard to be somebody

     F
I fall from all sides now

REFRAIN (with Fig. 1)
        Am                  F
I’m the one who made the choice
        Am                   F
I’m the one who pays the price

VERSE II
    Am                     F
Sometimes it feels like a big mistake

     Am
                   F
And it’s something I’d rather take back

    Am                    F
And cross over this hard line

     Am                       F
That keeps me on the wrong side all the time

CHORUS
             F                    Am
I’m seeing it all from both sides now

         F                       Am
I’m living it all from both sides now

        F              Am
And I tried so hard to be somebody

   F
I fall from all sides now

REFRAIN (with Fig. 1)
Am                    F
I’m the one who made the choice
Am                    F
I’m the one who pays the price

INTERLUDE
F
I’m the one to carry this

F
I’m the one who won’t be missed
Cmaj
I’m the one who has to work it out
F
I’m the one who made the choice

F
I’m the one who pays the price

Cmaj
I’m the one who traded normal life
F
I’m living it from both sides now

REFRAIN (with Fig. 1)
Am           F
I’m living it from both sides

CHORUS
                  F               Am
I’m living it all from both sides now

                  F                 Am
I’m giving it all from all sides now

         F                Am
And I tried so hard to please everybody

    F                  Am
I fall from all sides now

OUTRO (With Fig.1)
Am                      F
I’m the one who’s chosen this

Am                        F
I’m the one who won’t be missed
            
Submit corrections


        Both Sides lessons Hard to play? Try these video lessons and learn fast Both Sides lessons
        
↑ Back to top | Tablatures and chords for acoustic guitar and electric guitar, ukulele, drums are parodies/interpretations of the original songs. You may use it for private study, scholarship, research or language learning purposes only