Home » T » The Marvelettes »

The Marvelettes - Thas How Heartaches Are Made Bass

Artists:  A B C D E F G H I J K L M N O P Q R S T U V W X Y Z # 

Thas How Heartaches Are Made Bass

(ver. 1) Click to play this song!
The Marvelettes
Tuning: EADG

G|----------------------------------------------------------------|
D|----------------5---5-------5-----------------------------------|
A|3-----------3-------------------3-----------3-------------------|
E|------------------------------------------------1---1-------1---|

G|--------------------------------|
D|----------------5---5-------5---|
A|3-----------3-------------------|
E|--------------------------------|

G|----------------------------------------------------------------|
D|----------------5-----------5-----------------------------------|
A|3-----------3-------3-----------3-----------3-------------------|
E|------------------------------------------------1---1-------1---|

G|--------------------------------|
D|----------------5---5-------5---|
A|3-----------3-------------------|
E|--------------------------------|

0:18

G|----------------------------------------------------------------|
D|----------------------------------------------------------------|
A|3-------------3-3-----3-3---2---0-------------------0---3-0---0-|
E|--------------------------------------------0-1-3-----------3---|

G|----------------------------------------------------------------|
D|------------------------------------------------------------0-2-|
A|3-------------3---3---------2---0-------------0-------2-3-------|
E|--------------------0---3-----0-----------------0---3-----------|

G|----------------------------------------------------------------|
D|3-----------3-2-0-------0---2---3---------3-2-1-0---------0-1-2-|
A|--------3-------------0-----------------3-----------------------|
E|----------------------------------------------------------------|

G|----------------------------------------------------------------|
D|3-------------2-0-------0---2---3-------3-------5-------5-------|
A|--------3-------------0-----------------------5-------5-----2---|
E|----------------------------------------------------------------|

0:40

G|----------------------------------------------------------------|
D|----------------5---5-------5-----------------------------------|
A|3-----------3-------------------3-----------3-------------------|
E|------------------------------------------------1---1-------1---|

G|--------------------------------|
D|----------------5---5-------5---|
A|3-----------3-------------------|
E|--------------------------------|

G|----------------------------------------------------------------|
D|----------------5-----------5-----------------------------------|
A|3-----------3-------3-----------3-----------3-------------------|
E|------------------------------------------------1---1-------1---|

G|--------------------------------|
D|----------------5---5-------5---|
A|3-----------3-------------------|
E|--------------------------------|

0:57

G|----------------------------------------------------------------|
D|----------------------------------------------------------------|
A|3-----3-3-----3-----3---3---2---0-------0-----0---0-----0---3-0-|
E|----------------0-3-----------------------------0---3-----------|

G|----------------------------------------------------------------|
D|------------------------------------------------------------0-2-|
A|3-------------------3---2---1---0-------------0---0-----0-------|
E|--------0---1-2-3---------------------------0-------0-----------|

G|----------------------------------------------------------------|
D|3-----------3-2-0-------0---2---3-----------3-2-0-------0---2---|
A|--------3-------------0-----------------0-3-----------0---------|
E|----------------------------------------------------------------|

G|----------------------------------------------------------------|
D|3-------3---2-1-0-------0---2---3-------3-------5-------5-------|
A|------3---------------0-----------------------5-------------2---|
E|----------------------------------------------------------------|

1:18

G|----------------------------------------------------------------|
D|----------------5---5-------5-----------------------------------|
A|3-----------3-------------------3-----------3-------------------|
E|------------------------------------------------1---1-------1---|

G|--------------------------------|
D|----------------5---5-------5---|
A|3-----------3-------------------|
E|--------------------------------|

G|----------------------------------------------------------------|
D|----------------5-----------5-----------------------------------|
A|3-----------3-------3-----------3-----------3-------------------|
E|------------------------------------------------1---1-------1---|

G|--------------------------------|
D|----------------5---5-------5---|
A|3-----------3-----------------5-|
E|--------------------------------|

1:35

G|----------------------------------------------------------------|
D|----------------------------------------------------------------|
A|3-------3-----3-3-----0-3---2---0-------0-----0-----------0-3-0-|
E|------------------------------------------------0-1-3---3-------|

G|----------------------------------------------------------------|
D|--------------------------------------------------------0---0-2-|
A|3-------3-----0-3-----3-3---2---0-------0-------0---------3-----|
E|----------------------------------------------0-----------------|

G|----------------------------------------------------------------|
D|3---------3-2-1-0-------0---2---3-----------3-2-0---0---0---2---|
A|--------3-------------0-----------------3---------0-------------|
E|----------------------------------------------------------------|

G|----------------------------------------------------------------|
D|3-----------3-2-0-------0---0-2-3-------3-------5-------5-------|
A|--------3-----------------3-------------------5-------------2---|
E|----------------------------------------------------------------|

1:56

G|----------------------------------------------------------------|
D|----------------5---5-------5-----------------------------------|
A|3-----------3-------------------3-----------3-------------------|
E|------------------------------------------------1---1-------1---|

G|--------------------------------|
D|--------------------------------|
A|3---3-------3---3---3-------3---|
E|--------------------------------|

G|----------------------------------------------------------------|
D|----------------6---6-------6-------------------4---4-------4---|
A|4-----------4-------------------4-----------4-------------------|
E|----------------------------------------------------------------|

G|--------------------------------|
D|----------------6---6-------6---|
A|4-----------4-------------------|
E|------------------------------4-|

2:12

G|----------------------------------------------------------------|
D|----------------------------------------------------------------|
A|4-------------4---4-----3---2---1---------1---1---------1---3---|
E|--------------------------------------------1---------1---------|

G|----------------------------------------------------------------|
D|----------------------------------------------------------1-1-3-|
A|4-----4-------------4---3---2---1-------------1-----1-----------|
E|--------1---2-3-4-------------------------------1---------------|

G|----------------------------------------------------------------|
D|4---------4-3-2-1-------1---3---4-------4---3-2-1-------1---1-3-|
A|--------4-------------1---------------4---------------1---------|
E|----------------------------------------------------------------|

G|----------------------------------------------------------------|
D|4-------4---3-2-1-------1---3---4-------4---5---6-------6---6---|
A|------4---------------1---------------6-------------------------|
E|----------------------------------------------------------------|

2:34 Until fadeout.

G|----------------------------------------------------------------|
D|----------------6---6-------6-------------------4---4-------4---|
A|4-----------4-------------------4-----------4-------------------|
E|----------------------------------------------------------------|

G|--------------------------------|
D|----------------6---6-------6---|
A|4-----------4-------------------|
E|--------------------------------|

G|----------------------------------------------------------------|
D|----------------6---6-------6-----------------------------------|
A|4-----------4-------------------4-----------4-------------------|
E|------------------------------------------------2---2-------2---|

G|--------------------------------|
D|----------------6---6-------6---|
A|4-----------4-------------------|
E|--------------------------------|            
Submit corrections

↑ Back to top | Tablatures and chords for acoustic guitar and electric guitar, ukulele, drums are parodies/interpretations of the original songs. You may use it for private study, scholarship, research or language learning purposes only