Home » T » The Lillingtons »

The Lillingtons - X-Ray Specs Tabs

Artists:  A B C D E F G H I J K L M N O P Q R S T U V W X Y Z # 

X-Ray Specs Tabs
Version #1
The Lillingtons


Copy URL
X-ray specs- The lillingtons
Intro/verse
|----------------------------------------------------------------------------|
|----------------------------------------------------------------------------|
|---------------------------------7-7-7-7-7-7-7-7-5-5-5-5-5-5-5-5-|
|-5-5-5-5-5-5-5-5-5-5-5-5-5-5-5-5-7-7-7-7-7-7-7-7-5-5-5-5-5-5-5-5--|
|-5-5-5-5-5-5-5-5-5-5-5-5-5-5-5-5-5-5-5-5-5-5-5-5-3-3-3-3-3-3-3-3--|
|-3-3-3-3-3-3-3-3-3-3-3-3-3-3-3-3---------------------------------------|
Pre chorus
|--------------------------------------|
|--------------------------------------|
|-9-9-9-9-9-9-9-9-7-7-7-7-5-5-5-5-|
|-9-9-9-9-9-9-9-9-7-7-7-7-5-5-5-5-|
|-7-7-7-7-7-7-7-7-5-5-5-5-3-3-3-3-|
|--------------------------------------|
Chorus
|-------------------------------------------------|
|-------------------------------------------------|
|------------7-7-7-7-7-9-9-9-9-9-5-5-5-5-5-|
|-5-5-5-5-5--7-7-7-7-7-9-9-9-9-9-5-5-5-5-5-|
|-5-5-5-5-5--5-5-5-5-5-7-7-7-7-7-3-3-3-3-3-|
|-3-3-3-3-3-------------------------------------|

Lyrics are just a guess:
Verse
Tonight im dragging ass?
because lastnite I stayed up late
I was reading superman
DC comic 58
I saw his x-ray vision
And didn’t know what to do?
So I turned to page 43 and found out what to do

Pre chorus
Now dont you mess with me 
Im  a superhero man
Why look through solid walls when I can see your underwear?

Chorus
I can see trough your bull*** 
with my x-ray specs

Listen to death by television to get the timing
            
Submit corrections

↑ Back to top | Tablatures and chords for acoustic guitar and electric guitar, ukulele, drums are parodies/interpretations of the original songs. You may use it for private study, scholarship, research or language learning purposes only