Home » T » The Lillingtons »

The Lillingtons - Wait It Out Tabs

Artists:  A B C D E F G H I J K L M N O P Q R S T U V W X Y Z # 

Wait It Out Tabs
Version #1
The Lillingtons


Copy URL
Intro/outro
E|----------------------------------------------------------------------------|
B|----------------------------------------------------------------------------|
G|---------------------------------------------------------------------------|
D|-4-/--5----------------------------------------------------------------------|
A|-4-/--5---------------PLAY 10 TIMES-----------------------------------|
E|-2-/--3-----------------------------------------------------------------------|

VERSE
E|----------------------------------------------------------------------------|
B|-----------------------------------------------------------------------------|
G|-----------------------------------------------------------------------------|
D|-5--------------------------------------------------------------------------|
A|-5--PLAY 20 TIMES--------------------------------------------------|
E|-3---------------------------------------------------------------------------|

CHORUS PART 1
E|---------------------------------------------------------------------------|
B|---------------------------------------------------------------------------|
G|---------------------------------------------------------------------------|
D|-3-----------5-----------------------------------------------------------|
A|-3--X-11-----5----X-11-------------------------------------------------|
E|-1-----------3------------------------------------------------------------|

CHORUS PART 2
E|----------------------------------------------------------------------------|
B|----------------------------------------------------------------------------|
G|-5---------------------------------------------------------------------------|
D|-5--X 5--7-------3--------5---------------------------------------------|
A|-3-------7--X-5--3--X-5---5--X--5----------------------------------------|
E|---------5-------1--------3-----------------------------------------------|

my first tab! Listen to tne cd the backchannel broadcast to get the timeing. 
more lillingtons tab to come.
            
Submit corrections

↑ Back to top | Tablatures and chords for acoustic guitar and electric guitar, ukulele, drums are parodies/interpretations of the original songs. You may use it for private study, scholarship, research or language learning purposes only