Home » T » The Lillingtons »

The Lillingtons - Blue Steel Tabs

Artists:  A B C D E F G H I J K L M N O P Q R S T U V W X Y Z # 

Blue Steel Tabs
Version #1
The Lillingtons


Copy URL
e|----------------------------|----------------------------|
B|----------------------------|----------------------------|
G|----------------------------|--------------7--7--7--7----|
D|--7-----7--7--7--7--7--7----|--7--7--7--7--7--7--7--7----|
A|--7-----7--7--7--7--7--7----|--7--7--7--7--5--5--5--5----|
E|--5-----5--5--5--5--5--5----|--5--5--5--5----------------|


e|----------------------------|----------------------------|
B|----------------------------|----------------------------|
G|--5-----5--5--5--5--5--5----|--5--5--5--5--5--5--5--5----|
D|--5-----5--5--5--5--5--5----|--5--5--5--5--5--5--5--5----|
A|--3-----3--3--3--3--3--3----|--3--3--3--3--3--3--3--3----|
E|----------------------------|----------------------------|


e|----------------------------|----------------------------|
B|----------------------------|----------------------------|
G|----------------------------|--------------7--7--7--7----|
D|--7-----7--7--7--7--7--7----|--7--7--7--7--7--7--7--7----|
A|--7-----7--7--7--7--7--7----|--7--7--7--7--5--5--5--5----|
E|--5-----5--5--5--5--5--5----|--5--5--5--5----------------|


e|----------------------------|----------------------------|
B|----------------------------|----------------------------|
G|--5-----5--5--5--5--5--5----|--5--5--5--5--5--5--5--5----|
D|--5-----5--5--5--5--5--5----|--5--5--5--5--5--5--5--5----|
A|--3-----3--3--3--3--3--3----|--3--3--3--3--3--3--3--3----|
E|----------------------------|----------------------------|


e|----------------------------|----------------------------|
B|----------------------------|----------------------------|
G|----------------------------|--5s-7--7--7--7--7--7--7----|
D|--5-----5--5--5--5--5--5----|--5s-7--7--7--7--7--7--7----|
A|--5-----5--5--5--5--5--5----|--3s-5--5--5--5--5--5--5----|
E|--3-----3--3--3--3--3--3----|----------------------------|


e|----------------------------|----------------------------|
B|----------------------------|----------------------------|
G|----------------------------|----------------------------|
D|--7-----7--7--7--7--7--7----|--7--7--7--7--7--7--7--7----|
A|--7-----7--7--7--7--7--7----|--7--7--7--7--7--7--7--7----|
E|--5-----5--5--5--5--5--5----|--5--5--5--5--5--5--5--5----|


e|----------------------------|----------------------------|
B|----------------------------|----------------------------|
G|--5-----5--5--5--5--5--5----|----------------------------|
D|--5-----5--5--5--5--5--5----|--5-----5--5--5--5--5--5----|
A|--3-----3--3--3--3--3--3----|--5-----5--5--5--5--5--5----|
E|----------------------------|--3-----3--3--3--3--3--3----|


e|----------------------------|----------------------------|
B|----------------------------|----------------------------|
G|--7--7--7--7--7--7--7--7----|--7--7--7--7--7--7--7--7----|
D|--7--7--7--7--7--7--7--7----|--7--7--7--7--7--7--7--7----|
A|--5--5--5--5--5--5--5--5----|--5--5--5--5--5--5--5--5----|
E|----------------------------|----------------------------|


e|----------------------------|----------------------------|
B|----------------------------|----------------------------|
G|----------------------------|--------------7--7--7--7----|
D|--7-----7--7--7--7--7--7----|--7--7--7--7--7--7--7--7----|
A|--7-----7--7--7--7--7--7----|--7--7--7--7--5--5--5--5----|
E|--5-----5--5--5--5--5--5----|--5--5--5--5----------------|


e|----------------------------|----------------------------|
B|----------------------------|----------------------------|
G|--5-----5--5--5--5--5--5----|--5--5--5--5--5--5--5--5----|
D|--5-----5--5--5--5--5--5----|--5--5--5--5--5--5--5--5----|
A|--3-----3--3--3--3--3--3----|--3--3--3--3--3--3--3--3----|
E|----------------------------|----------------------------|


e|----------------------------|----------------------------|
B|----------------------------|----------------------------|
G|----------------------------|--------------7--7--7--7----|
D|--7-----7--7--7--7--7--7----|--7--7--7--7--7--7--7--7----|
A|--7-----7--7--7--7--7--7----|--7--7--7--7--5--5--5--5----|
E|--5-----5--5--5--5--5--5----|--5--5--5--5----------------|


e|----------------------------|----------------------------|
B|----------------------------|----------------------------|
G|--5-----5--5--5--5--5--5----|--5--5--5--5--5--5--5--5----|
D|--5-----5--5--5--5--5--5----|--5--5--5--5--5--5--5--5----|
A|--3-----3--3--3--3--3--3----|--3--3--3--3--3--3--3--3----|
E|----------------------------|----------------------------|


e|----------------------------|----------------------------|
B|----------------------------|----------------------------|
G|----------------------------|--5s-7--7--7--7--7--7--7----|
D|--5-----5--5--5--5--5--5----|--5s-7--7--7--7--7--7--7----|
A|--5-----5--5--5--5--5--5----|--3s-5--5--5--5--5--5--5----|
E|--3-----3--3--3--3--3--3----|----------------------------|


e|----------------------------|----------------------------|
B|----------------------------|----------------------------|
G|----------------------------|----------------------------|
D|--7-----7--7--7--7--7--7----|--7--7--7--7--7--7--7--7----|
A|--7-----7--7--7--7--7--7----|--7--7--7--7--7--7--7--7----|
E|--5-----5--5--5--5--5--5----|--5--5--5--5--5--5--5--5----|


e|----------------------------|----------------------------|
B|----------------------------|----------------------------|
G|--5-----5--5--5--5--5--5----|----------------------------|
D|--5-----5--5--5--5--5--5----|--5-----5--5--5--5--5--5----|
A|--3-----3--3--3--3--3--3----|--5-----5--5--5--5--5--5----|
E|----------------------------|--3-----3--3--3--3--3--3----|


e|----------------------------||
B|----------------------------||
G|--7-------------------------||
D|--7-------------------------||
A|--5-------------------------||
E|----------------------------||            
Submit corrections

↑ Back to top | Tablatures and chords for acoustic guitar and electric guitar, ukulele, drums are parodies/interpretations of the original songs. You may use it for private study, scholarship, research or language learning purposes only