» » »

The Letter Black - Sick Charade Tabs

Artists:  A B C D E F G H I J K L M N O P Q R S T U V W X Y Z # 

Sick Charade Tabs

(ver. 1) Click to play this song!
The Letter Black
 Rating:
4.3/5 (10 votes)

 Sick Charade lessons Tabs too difficult? Try these video lessons and learn fast
 
                [Intro]
B |-----------------------------|-----------------------------|
F#|-----------------------------|-----------------------------|
D |-----------------------------|-----------------------------|
A |-6-5-5-5-------------5p3--5\-|-6-5-5-5-------------5p3--5--|
E |-6-5-5-5-5--5--5--5----------|-6-5-5-5-5--5--5--5----------|
A |-6-5-5-5-5--5--5--5----------|-6-5-5-5-5--5--5--5----------|

B |-----------------------------|--------------------------------------------|
F#|-----------------------------|--------------------------------------------|
D |-----------------------------|--------------------------------------------|
A |-6-5-5-5-------------5p3--5--|-11----------------8-------------10---------|
E |-6-5-5-5-5--5--5--5----------|-11-11-11-10-10-10-8-8-8-10-10-8-10-11-10-8-|
A |-6-5-5-5-5--5--5--5----------|-11-11-11-10-10-10-8-8-8-10-10-8-10-11-10-8-|

[Verse 1]
B |-----------------------------|-----------------------------|
F#|-----------------------------|-----------------------------|
D |-----------------------------|-----------------------------|
A |-6-5-5-5-------------5p3--5*-|-6-5-5-5-------------5p3--5--|
E |-6-5-5-5-5--5--5--5----------|-6-5-5-5-5--5--5--5----------|
A |-6-5-5-5-5--5--5--5----------|-6-5-5-5-5--5--5--5----------|

B |-----------------------------|--------------------------------------------|
F#|-----------------------------|--------------------------------------------|
D |-----------------------------|--------------------------------------------|
A |-6-5-5-5-------------5p3--5--|-11----------------8-------------10---------|
E |-6-5-5-5-5--5--5--5----------|-11-11-11-10-10-10-8-8-8-10-10-8-10-11-10-8-|
A |-6-5-5-5-5--5--5--5----------|-11-11-11-10-10-10-8-8-8-10-10-8-10-11-10-8-|

B |-----------------------------|-----------------------------|
F#|-----------------------------|-----------------------------|
D |-----------------------------|-----------------------------|
A |-6-5-5-5-------------5p3--5--|-6-5-5-5-------------5p3--5--|
E |-6-5-5-5-5--5--5--5----------|-6-5-5-5-5--5--5--5----------|
A |-6-5-5-5-5--5--5--5----------|-6-5-5-5-5--5--5--5----------|

B |-----------------------------|--------------------------------------------|
F#|-----------------------------|--------------------------------------------|
D |-----------------------------|--------------------------------------------|
A |-6-5-5-5-------------5p3--5--|-11----------------8-------------10---------|
E |-6-5-5-5-5--5--5--5----------|-11-11-11-10-10-10-8-8-8-10-10-8-10-11-10-8-|
A |-6-5-5-5-5--5--5--5----------|-11-11-11-10-10-10-8-8-8-10-10-8-10-11-10-8-|

[Pre-chorus]
B |--------------------------------------------------|
F#|--------------------------------------------------|
D |--------------------------------------------------|
A |-12-12-12-10-10-10-13-13-13-12-12-12-10-12-10-8---|
E |-13-13-13-12-12-12-15-15-15-13-13-13-12-13-12-10--|
A |--------------------------------------------------|

[Chorus]
B |----------------------|--------------------------------|
F#|-8-----15-15-13-13-12-|--------------------------------|
D |-x-----x--x--x--x--x--|--------------------------------|
A |-5-----12-12-10-10-9--|--------------------------------|
E |----------------------|-10-------------5---------------|
A |---5-5----------------|-----5-5-10--9--5-5-5h6-5-5-6-5-|

B |----------------------|-------------------------------------|
F#|-8-----15-15-13-13-12-|-------------------------------------|
D |-x-----x--x--x--x--x--|-------------------------------------|
A |-5-----12-12-10-10-9--|-------------------------------------|
E |----------------------|-10------------------5---------------|
A |---5-5----------------|----5-5-10-10-5-9-5--5-5-5-6-5-5-6-5-|

B |----------------------|--------------------------------|
F#|-8-----15-15-13-13-12-|--------------------------------|
D |-x-----x--x--x--x--x--|--------------------------------|
A |-5-----12-12-10-10-9--|--------------------------------|
E |----------------------|-10-------------5---------------|
A |---5-5----------------|-----5-5-10--9--5-5-5h6-5-5-6-5-|

B |----------------------|-----------------------------------|
F#|-8-----15-15-13-13-12-|-----------------------------------|
D |-x-----x--x--x--x--x--|-----------------------------------|
A |-5-----12-12-10-10-9--|-3h5-5-3h5-5-3h5-------------------|
E |----------------------|-----------------------------------|
A |---5-5----------------|-----------------5b6-6-6-6-6r5--5--|

[Instrumental]
B |-----------------------------|-----------------------------|
F#|-----------------------------|-----------------------------|
D |-----------------------------|-----------------------------|
A |-6-5-5-5-------------5p3--5\-|-6-5-5-5-------------5p3--5--|
E |-6-5-5-5-5--5--5--5----------|-6-5-5-5-5--5--5--5----------|
A |-6-5-5-5-5--5--5--5----------|-6-5-5-5-5--5--5--5----------|

B |-----------------------------|--------------------------------------------|
F#|-----------------------------|--------------------------------------------|
D |-----------------------------|--------------------------------------------|
A |-6-5-5-5-------------5p3--5--|-11----------------8-------------10---------|
E |-6-5-5-5-5--5--5--5----------|-11-11-11-10-10-10-8-8-8-10-10-8-10-11-10-8-|
A |-6-5-5-5-5--5--5--5----------|-11-11-11-10-10-10-8-8-8-10-10-8-10-11-10-8-|

[Verse 2]
B |-----------------------------|-----------------------------|
F#|-----------------------------|-----------------------------|
D |-----------------------------|-----------------------------|
A |-6-5-5-5-------------5p3--5*-|-6-5-5-5-------------5p3--5--|
E |-6-5-5-5-5--5--5--5----------|-6-5-5-5-5--5--5--5----------|
A |-6-5-5-5-5--5--5--5----------|-6-5-5-5-5--5--5--5----------|

B |-----------------------------|--------------------------------------------|
F#|-----------------------------|--------------------------------------------|
D |-----------------------------|--------------------------------------------|
A |-6-5-5-5-------------5p3--5--|-11----------------8-------------10---------|
E |-6-5-5-5-5--5--5--5----------|-11-11-11-10-10-10-8-8-8-10-10-8-10-11-10-8-|
A |-6-5-5-5-5--5--5--5----------|-11-11-11-10-10-10-8-8-8-10-10-8-10-11-10-8-|

B |-----------------------------|-----------------------------|
F#|-----------------------------|-----------------------------|
D |-----------------------------|-----------------------------|
A |-6-5-5-5-------------5p3--5--|-6-5-5-5-------------5p3--5--|
E |-6-5-5-5-5--5--5--5----------|-6-5-5-5-5--5--5--5----------|
A |-6-5-5-5-5--5--5--5----------|-6-5-5-5-5--5--5--5----------|

B |-----------------------------|--------------------------------------------|
F#|-----------------------------|--------------------------------------------|
D |-----------------------------|--------------------------------------------|
A |-6-5-5-5-------------5p3--5--|-11----------------8-------------10---------|
E |-6-5-5-5-5--5--5--5----------|-11-11-11-10-10-10-8-8-8-10-10-8-10-11-10-8-|
A |-6-5-5-5-5--5--5--5----------|-11-11-11-10-10-10-8-8-8-10-10-8-10-11-10-8-|

[Pre-chorus]
B |--------------------------------------------------|
F#|--------------------------------------------------|
D |--------------------------------------------------|
A |-12-12-12-10-10-10-13-13-13-12-12-12-10-12-10-8---|
E |-13-13-13-12-12-12-15-15-15-13-13-13-12-13-12-10--|
A |--------------------------------------------------|

[Chorus]
B |----------------------|--------------------------------|
F#|-8-----15-15-13-13-12-|--------------------------------|
D |-x-----x--x--x--x--x--|--------------------------------|
A |-5-----12-12-10-10-9--|--------------------------------|
E |----------------------|-10-------------5---------------|
A |---5-5----------------|-----5-5-10--9--5-5-5h6-5-5-6-5-|

B |----------------------|-------------------------------------|
F#|-8-----15-15-13-13-12-|-------------------------------------|
D |-x-----x--x--x--x--x--|-------------------------------------|
A |-5-----12-12-10-10-9--|-------------------------------------|
E |----------------------|-10------------------5---------------|
A |---5-5----------------|----5-5-10-10-5-9-5--5-5-5-6-5-5-6-5-|

B |----------------------|--------------------------------|
F#|-8-----15-15-13-13-12-|--------------------------------|
D |-x-----x--x--x--x--x--|--------------------------------|
A |-5-----12-12-10-10-9--|--------------------------------|
E |----------------------|-10-------------5---------------|
A |---5-5----------------|-----5-5-10--9--5-5-5h6-5-5-6-5-|

B |----------------------|-----------------------------------|
F#|-8-----15-15-13-13-12-|-----------------------------------|
D |-x-----x--x--x--x--x--|-----------------(5)---------------|
A |-5-----12-12-10-10-9--|-------------(5)-------------------|
E |----------------------|-----------------------------------|
A |---5-5----------------|-3h5-5-3h5-5---------5-6-5-8-5-6-5-|

[Insrumental]
B |-----------------------------|--------------------------------------------|
F#|-----------------------------|--------------------------------------------|
D |-----------------------------|--------------------------------------------|
A |-5~--------------------------|-11----------------8-------------10---------|
E |-5~--------------------------|-11-11-11-10-10-10-8-8-8-10-10-8-10-11-10-8-|
A |-5~--------------------------|-11-11-11-10-10-10-8-8-8-10-10-8-10-11-10-8-|

B |-----------------------------|--------------------------------------------|
F#|-----------------------------|--------------------------------------------|
D |-----------------------------|--------------------------------------------|
A |-5~--------------------------|-11----------------8-------------10---------|
E |-5~--------------------------|-11-11-11-10-10-10-8-8-8-10-10-8-10-11-10-8-|
A |-5~--------------------------|-11-11-11-10-10-10-8-8-8-10-10-8-10-11-10-8-|

[Bridge]
B |-----------------------------|----------------------------------|
F#|-----------------------------|----------------------------------|
D |-------------------------5---|------------------5---------------|
A |-5-5-5-5-------------5h6---6-|-5-5-5-5------------6-------------|
E |-5-5-5-5-5--5--5--5----------|-5-5-5-5-5--5--5------3b4v*---1-3-|
A |-5-5-5-5-5--5--5--5----------|-5-5-5-5-5--5--5------------------|

B |----------------------------|--------------------------------------------|
F#|----------------------------|--------------------------------------------|
D |----------------------------|--------------------------------------------|
A |-5-5-5----------------------|--------------------------------------------|
E |-5-5-5---5--5--5------------|--------------------------------------------|
A |-5-5-5---5--5--5-5-5--6--5--|-11-11-11-10-10-10-8-8-8-10-10-8-10-11-10-8-|

[Chorus]
B |----------------------|--------------------------------|
F#|-8-----15-15-13-13-12-|--------------------------------|
D |-x-----x--x--x--x--x--|--------------------------------|
A |-5-----12-12-10-10-9--|--------------------------------|
E |----------------------|-10-------------5---------------|
A |---5-5----------------|-----5-5-10--9--5-5-5h6-5-5-6-5-|

B |----------------------|-------------------------------------|
F#|-8-----15-15-13-13-12-|-------------------------------------|
D |-x-----x--x--x--x--x--|-------------------------------------|
A |-5-----12-12-10-10-9--|-------------------------------------|
E |----------------------|-10------------------5---------------|
A |---5-5----------------|----5-5-10-10-5-9-5--5-5-5-6-5-5-6-5-|

B |----------------------|--------------------------------|
F#|-8-----15-15-13-13-12-|--------------------------------|
D |-x-----x--x--x--x--x--|--------------------------------|
A |-5-----12-12-10-10-9--|--------------------------------|
E |----------------------|-10-------------5---------------|
A |---5-5----------------|-----5-5-10--9--5-5-5h6-5-5-6-5-|

B |----------------------|-----------------------------------|
F#|-8-----15-15-13-13-12-|-----------------------------------|
D |-x-----x--x--x--x--x--|-----------------(5)---------------|
A |-5-----12-12-10-10-9--|-------------(5)-------------------|
E |----------------------|-----------------------------------|
A |---5-5----------------|-3h5-5-3h5-5---------5-6-5-8-5-6-5-|

[Outro]
B |-----------------------------|----------------------------------|
F#|-----------------------------|----------------------------------|
D |-------------------------5---|------------------5---------------|
A |-5-5-5-5-------------5h6---6-|-5-5-5-5------------6-------------|
E |-5-5-5-5-5--5--5--5----------|-5-5-5-5-5--5--5------3b4v*---1-3-|
A |-5-5-5-5-5--5--5--5----------|-5-5-5-5-5--5--5------------------|

B |----------------------------|--------------------------------------------|
F#|----------------------------|--------------------------------------------|
D |----------------------------|--------------------------------------------|
A |-5-5-5----------------------|--------------------------------------------|
E |-5-5-5---5--5--5------------|--------------------------------------------|
A |-5-5-5---5--5--5-5-5--6--5--|-11-11-11-10-10-10-8-8-8-10-10-8-10-11-10-8-|            
Submit corrections


        Sick Charade lessons Hard to play? Try these video lessons and learn fast Sick Charade lessons
        
↑ Back to top | Tablatures and chords for acoustic guitar and electric guitar, ukulele, drums are parodies/interpretations of the original songs. You may use it for private study, scholarship, research or language learning purposes only