» » »

BäRs Som BäRs Bass - The Kristet Utseende

Artists:  A B C D E F G H I J K L M N O P Q R S T U V W X Y Z # 

BäRs Som BäRs Bass

(ver. 1) Click to play this song!
The Kristet Utseende
4/5 (4 votes)
    BäRs Som BäRs lessons Tabs too difficult? Try these video lessons and learn fast
G ----------------------
D ----------------------
A ------------------6--- X4
E -4--4-4--4-4--4-4---6-

G -------------------------------------------
D -------------------------------------------
A -----------------6------------------------- X2
E -4--4-4--4-4-4-4---6-4-4--4-4--4-4-3-4-4-4-

G ---------------------------------------      G ------------
D ---------------------------------------      D ------------
A -4-4-----4-4-2-2-2--------------------- X2   A ------------
E -----2-2-----------3-4-4--4-4--3-4-4-4-      E -4--3-4-4-4-

Allting en gång till.
Everything one more time.

G -------------------
D -------------------
A -------------------
E -4--3-4-4-4--4---4-
Submit corrections

↑ Back to top | Tablatures and chords for acoustic guitar and electric guitar, ukulele, drums are parodies/interpretations of the original songs. You may use it for private study, scholarship, research or language learning purposes only